Oops, an error
Loading. Please wait.

State Of Grace Acoustic Tab

16,028 views 57 this week
8 commentsread comments
1 2 3 4 5
excellent!
x 13
add to favorites
launch autoscroll
font size
0
reset
how to read this tab
guitar tuner
Tab Pro tools
  • play this tab
  • loop segment
  • change instrument
  • show fretboard
  • metronome
×
Best way to learn
"State Of Grace Acoustic"
Autoscroll
slow
fast
+/-
esc
set tempo
stop
Contributor
The acoustic version of this song is beautiful, so I tabbed the lead, fingerpicking 
guitar in the song! Enjoy :)

Standard Tuning

Intro:

E|--------------------------------------------------------------------------------------------------|
B|-3-----3-----3---3-----3-----3---2-----2-----2---3-----3-----3---3--------------------------------|
G|-2-----2-----2---2-----2-----2---2-----2-----2---2-----2-----2---0--------------------------------|
D|---0-0---0-0---0---0-0---0-0---0---0-0---0-0---0---0-0---0-0---0-------4--------------------------|
A|-----------------------------------------------------------------------------2--------------------|
E|-------------------------------------------------------------------3-3---3-3---3-3-3-3-3-3-3-3-3--|


E|-----------------------------|
B|-----------------------------|
G|-0---------------------------|
D|-------4---------------------|
A|-------------2---------------|
E|---3-3---3-3---3-3-3-3-3-3---|



Verse 1:

E|--------------------------------------------------------------------------------------------------|
B|-3-----3-----3---3-----3-----3---3-----3-----3---2-----3-----3---3--------------------------------|
G|-2-----2-----2---2-----2-----2---2-----2-----2---2-----2-----2---0--------------------------------|
D|---0-0---0-0---0---0-0---0-0---0---0-0---0-0---0---0-0---0-0---0-------4--------------------------|
A|-----------------------------------------------------------------------------2--------------------|
E|-------------------------------------------------------------------3-3---3-3---3-3-3-3-3-3-3-3-3--|

E|-----------------------------|
B|-----------------------------|
G|-0---------------------------|
D|-------4---------------------|
A|-------------2---------------|
E|---3-3---3-3---3-3-3-3-3-3---|



Verse 2:

E|--------------------------------------------------------------------------------------------------|
B|-3-----3-----3---2-----3-----3---2-----3-----3---2-----3-----3---3--------------------------------|
G|-2-----2-----2---2-----2-----2---2-----2-----2---2-----2-----2---0--------------------------------|
D|---0-0---0-0---0---0-0---0-0---0---0-0---0-0---0---0-0---0-0---0-------4--------------------------|
A|-----------------------------------------------------------------------------2--------------------|
E|-------------------------------------------------------------------3-3---3-3---3-3-3-3-3-3-3-3-3--|

E|-----------------------------|
B|-----------------------------|
G|-0---------------------------|
D|-------4---------------------|
A|-------------2---------------|
E|---3-3---3-3---3-3-3-3-3-3---|



Chorus:

E|--------------------------------------------------------------------------------------------------|
B|-3-----3-----3---3-----3-----3---3-----3-----3---2-----3-----3---3--------------------------------|
G|-2-----2-----2---2-----2-----2---2-----2-----2---2-----2-----2---0--------------------------------|
D|---0-0---0-0---0---0-0---0-0---0---0-0---0-0---0---0-0---0-0---0-------4--------------------------|
A|-----------------------------------------------------------------------------2--------------------|
E|-------------------------------------------------------------------3-3---3-3---3-3-3-3-3-3-3-3-3--|

E|-----------------------------|
B|-----------------------------|
G|-0---------------------------|
D|-------4---------------------|
A|-------------2---------------|
E|---3-3---3-3---3-3-3-3-3-3---|

E|--------------------------------------------------------------------------------------------------|
B|-3-----3-----3---3-----3-----3---5-----5-----7-----3-----2---3---3--------------------------------|
G|-2-----2-----2---2-----2-----2---0-----0-----0-----2-----2---2---0--------------------------------|
D|---0-0---0-0---0---0-0---0-0---0---0-0---0-0---0-0---0-0---0---0-------4--------------------------|
A|-----------------------------------------------------------------------------2--------------------|
E|-------------------------------------------------------------------3-3---3-3---3-3-3-3-3-3-3-3-3--|

E|-----------------------------|
B|-----------------------------|
G|-0---------------------------|
D|-------4---------------------|
A|-------------2---------------|
E|---3-3---3-3---3-3-3-3-3-3---|



Verse 3:

E|----------------------------------------------5---5-----5------------------------------------------|
B|-3-----3-----3---5-----5-----5---3-----3---3------------------3---3--------------------------------|
G|-2-----2-----2---0-----0-----0---2-----2----------------------2---0--------------------------------|
D|---0-0---0-0---0---0-0---0-0---0---0-0---0------0---0-0---0-0---0-------4--------------------------|
A|------------------------------------------------------------------------------2--------------------|
E|--------------------------------------------------------------------3-3---3-3---3-3-3-3-3-3-3-3-3--|

E|-----------------------------|
B|-----------------------------|
G|-0---------------------------|
D|-------4---------------------|
A|-------------2---------------|
E|---3-3---3-3---3-3-3-3-3-3---|


Verse 4:

E|----------------------------------------------5---0-----0-----0------------------------------------|
B|-3-----3-----3---5-----5-----5---3-----3------3---3-----2-----3---3--------------------------------|
G|-2-----2-----2---0-----0-----0---2-----2------0---2-----2-----2---0--------------------------------|
D|---0-0---0-0---0---0-0---0-0---0---0-0---0-0----0---0-0---0-0---0-------4--------------------------|
A|------------------------------------------------------------------------------2--------------------|
E|--------------------------------------------------------------------3-3---3-3---3-3-3-3-3-3-3-3-3--|

E|-----------------------------|
B|-----------------------------|
G|-0---------------------------|
D|-------4---------------------|
A|-------------2---------------|
E|---3-3---3-3---3-3-3-3-3-3---|



Bridge 1:

E|--------------------------------------------------------------------------------------------------|
B|-3-----3-----3---3/5----5------5----5/7-----------3---3-----2------3------------------------------|
G|-2-----2-----2----------------------------------------------------------0-------------------------|
D|---0-0---0-0---0----0-0---0-0----0------0-0---0-0---0---0-0---0-0---0-0---0--0---0--------2-------|
A|-------------------------------------------------------------------------------0----4---4----0-4p-|
E|--------------------------------------------------------------------------------------------------|



Chorus:

E|----------------------------------------------------------------------------------------------------|
B|-3-----3-----3---3-----3-----3---3/5-----5-----7----7-----7---7----3--------------------------------|
G|-2-----2-----2---2-----2-----2-------------------------------------0--------------------------------|
D|---0-0---0-0---0---0-0---0-0---0----0-0---0-0---0-0---0-0---0---0--------4--------------------------|
A|-------------------------------------------------------------------------------2--------------------|
E|---------------------------------------------------------------------3-3---3-3---3-3-3-3-3-3-3-3-3--|

E|-----------------------------|
B|-----------------------------|
G|-0---------------------------|
D|-------4---------------------|
A|-------------2---------------|
E|---3-3---3-3---3-3-3-3-3-3---|

E|----------------------------------------------------------------------------------------------------|
B|---------------------------------3---------------------------3---3----------------------------------|
G|-2-----2-----2---2-----2-----2---------2-----0-----2-----2---2---0----------------------------------|
D|---0-0---0-0---0---0-0---0-0---0---0-0---0-0---0-0---0-0---0---0-------2/4-4------------------------|
A|------------------------------------------------------------------------------2---------------------|
E|-------------------------------------------------------------------3-3-----------3-3-3-3-3-3-3-3-3--|

E|-------------------------------|
B|-------------------------------|
G|-2----------2------------------|
D|-------4-4---------------------|
A|--------------2----------------|
E|---3-3-----------3-3-3-3-3-3---|



Bridge 2:

E|-2--2-------3-3------------2------------------0--------------------|
B|-3----3---------0------------3--------3---------3-----3------------|
G|-2--------2---------0----2-----2----2-------0-------0---0----------|
D|--------0---------0----0----------0-------2-------2-------4-4-0-0--|
A|------------2---------------------------0--------------------------|
E|------------3------------------------------------------------------|

E|-----------------------------------------------------|
B|-----------------------------------0------3----------|
G|-------------2-2--------2-2--0--------0-2---2-0------|
D|-------4--4------4-4-0=--------4-----------------4---|
A|-2-2-2-----------------2---------2-----------------2-|
E|-----------------------------------------------------|



Chorus:

E|--------------------------------------------------------------------------------------------------|
B|-3---------------------------------------------------------------3--------------------------------|
G|-2-----2-----2---2-----2-----2---2-----2-----2-----2-----2---2---0--------------------------------|
D|---0-0---0-0---0---0-0---0-0---0---0-0---0-0---0-0---0-0---0---0-------4--------------------------|
A|-----------------------------------------------------------------------------2--------------------|
E|-------------------------------------------------------------------3-3---3-3---3-3-3-3-3-3-3-3-3--|

E|--------------------------------|
B|--------------------------------|
G|-0------------------------------|
D|-------4------------------------|
A|-------------2------------------|
E|---3-3---3-3---3-3-3-3-3-3------|

E|----------------------------------------------------------------------------------------------------|
B|-------------3---3-----3-----3---3-----3-----0-----0-----0---0--------------------------------------|
G|-2-----2-----2---2-----2-----2---2-----2-----2-----0-----2---2---0----0------------------0---0---0--|
D|---0-0---0-0---0---0-0---0-0---0---0-0---0-0---0-0---0-0---0---0---------------0----0---------------|
A|-------------------------------------------------------------------------------2----2---------------|
E|-------------------------------------------------------------------3-3--3-3-3-3--3-3--3-3--3-3--3-3-|



Climb:

E|--3--3--3--3--|
B|--3--3--3--3--|
G|--4--4--4--4--| x4
D|--5--5--5--5--|
A|--3--3--3--3--|
E|--3--3--3--3--|


Ending Chorus:

E|-2------------------------------------------------------------------------------------|
B|-3--3---------3-----------------------------------------------------------------------|
G|-2-----2-2--0---2----2-2-2-2--0---------------------------0---------------------------|
D|------------------------------------4---------------------------4---------------------|
A|------------------------------------------2---------------------------2---------------|
E|--------------------------------3-3---3-3---3-3-3-3-3-3-3---3-3---3-3---3-3-3-3-3-3-3-|

E|---------------------------------------------------------------------------------------------------|
B|-------3-----3---3-----3-----3---3-----3-----------------------------------------------------------|
G|--------------------------------------------2----------2------2-----0------------------------------|
D|---0-0---0-0---0---0-0---0-0---0---0-0-----------4---------4--------------4------------------------|
A|-0------------------------------------------------------------------------------2------------------|
E|-----------------------------------------3-3--3-3---3-3--3-3----3-3---3-3---3-3---3-3-3-3-3-3-3-3-3|


E|---------------------------2-----3-----------0----0--------2-----------|
B|---------------------------3-------0-----0---3------3------3-----------|
G|-0-------------------------2---------0-------2----------2--2--0--------|
D|-------4-------------------------------0-----0--0-----0----0-----4-----|
A|-------------2-------------------2-----------0----------------------2--|
E|---3-3---3-3---3-3-3-3-3-3-------3-------------------------------------|
comments
print report bad tab
8 comments total. Showing first comments.
0 reply
Finnick<3sugar wrote on January 7 2013, 10:51 pm

A bit confused at first, but now it makes sense. Thanks for posting this!

0 reply
ElysseFray111 wrote on February 14 2013, 10:06 am

pretty accurate, but a bit confused:
is "chorus" the part where the lyrics go "and i never saw you come in, and I'll never be the same"?
or is it "love is a ruthless game... this is the golden age of something good and right an real"?
Other than that, excellent tab :]

0 reply
Finnick<3sugar wrote on March 5 2013, 01:28 am

it's "I never..." :)

I want to post or [tab]
guest
You may want to rate the tab now too:
select rating
Please do not post tabs as comments. Select "correction" instead!