Oops, an error
Loading. Please wait.

State Of Grace Acoustic tab

version 2
version 2

Whole song

280 views 54 this week
no commentswrite comment
1 2 3 4 5
2 more votes to show rating
add to favorites
×
Save as Personal and add changes to this tab that will be seen only by you. Learn more ›
×
You can save this tab as Personal to edit and correct it or add notes. All changes will be seen only by you. Learn more »
launch autoscroll
font size
0
reset
how to read this tab
guitar tuner
edit
Autoscroll
slow
fast
+/-
esc
set tempo
stop
Author
Difficulty
Hey this is my first tab but I think it's pretty good. This is for the demo recording 
version on the Red deluxe
and not for the regular song on the album so do not get confused. It's not 100% right as 
it gets kinda wonky at
the end but it sounds good to me. Some feedback would help

State of Grace acoustic

Intro play x1 Play again verse

I'm walking fast through the traffic lights, busy streets

         D                               Dmaj7
e|-------------------------------------------------------------|
B|-3-----3------3------3-----3------3----2------2------2-------|
G|-2-----2------2------2-----2------2----2------2------2-------|
D|---0-0-----0-0--0------0-0---0-0----0-----0-0----0-0----0----|
A|-------------------------------------------------------------|
E|-------------------------------------------------------------|

and busy lights         and all we know, is touch and go
   D
e|-------------------------------------------------------------|
B|-3-----3------3----------------------------------------------|
G|-2-----2------2----------------------------------------------|
D|---0-0-----0-0-----------------------------------------------|
A|------------------2---------2------------2-------------------|
E|----------------------3--2----------3--2---------------------|

And I never saw you coming (x2)

e|----------------------------------------0----2----------------|
B|-3-----3------3------3-----3------3-------------3--2h3---0----|
G|-2-----2------2------2-----2------2-------2-------------------|
D|---0-0-----0-0--0------0-0---0-0----0-------------------------|
A|--------------------------------------------------------------|
E|--------------------------------------------------------------|

e|---------------------------------------------------------------|
B|---------------------------------------------------------------|
G|---------------------------------------------------------------|
D|---------------------------------------------------------------|
A|---------2----------2------------------------------------------|
E|---3--2-------3--2---------------------------------------------|

You come around and the armor falls pierce the room like a cannonball

e|--------------------0-----0-----0---------------------0h2h5-5p2p0-|
B|-3-----3-----3-------------------------3-----3----3-3-------------|
G|-2-----2-----2------2-----2-----2------2-----2--------------------|
D|---0-0---0-0---0------0-0---0-0---0------0-0---0-0----------------|
A|------------------------------------------------------------------|
E|------------------------------------------------------------------|

And all we know is don't let go

e|---------------------------------------------------------------|
B|---------------------------------------------------------------|
G|---------------------------------------------------------------|
D|---------------------------------------------------------------|
A|---------2----------2------------------------------------------|
E|---3--2-------3--2---------------------------------------------|

We are alone just you and me up in your room and our slates are clean

e|--------------------0-----0-----0------------------------------|
B|-3-----3-----3-------------------------3-----3----3------------|
G|-2-----2-----2------2-----2-----2------2-----2-----------------|
D|---0-0---0-0---0------0-0---0-0---0------0-0---0-0--0----------|
A|---------------------------------------------------------------|
E|---------------------------------------------------------------|

e|---------------------------------------------------------------|
B|-2----2-----2--------------------------------------------------|
G|-2----2-----2--------------------------------------------------|
D|---0-0--0-0------0h2-------------------------------------------|
A|----------------------------2--------2-------------------------|
E|------------------------3-2------3-2---------------------------|

*once before bridge*

e|-2-------------------------------------------------------------|
B|-2-------------------------------------------------------------|
G|-2-------------------------------------------------------------|
D|-0-------------------------------------------------------------|
A|-0-------------------------------------------------------------|
E|---------------------------------------------------------------|

So you were never a saint and I loved in shades of wrong

e|----------------------------------------------------------------------|
B|-3----3----3----3s5----5---5-----5s7----7----7s3----3----2h3----0-----|
G|----------------------------------------------------------------------|
D|--0-0--0-0--0-0----0-0--0-0--0-0----0-0---0-0---0-0--0-0----0-0-------|
A|----------------------------------------------------------------------|
E|----------------------------------------------------------------------|

But this love is brave and wild

e|---------------------------------------------------------------|
B|---------------------------------------------------------------|
G|---------------------------------------------------------------|
D|---------------------------------------------------------------|
A|-------2--------0----------------------------------------------|
E|--3-2-----3-2-2------------------------------------------------|


And I never saw you coming (x2)

e|----------------------------------------0----2----------------|
B|-3-----3------3------3-----3------3-------------3--2h3---0----|
G|-2-----2------2------2-----2------2-------2-------------------|
D|---0-0-----0-0--0------0-0---0-0----0-------------------------|
A|--------------------------------------------------------------|
E|--------------------------------------------------------------|

e|---------------------------------------------------------------|
B|---------------------------------------------------------------|
G|---------------------------------------------------------------|
D|---------------------------------------------------------------|
A|---------2----------2------------------------------------------|
E|---3--2-------3--2---------------------------------------------|

And I'll never be the same

e|---------------------------------------------------------------|
B|---------------------------------------------------------------|
G|---------------------------------------------------------------|
D|------4s5--4--4--0------7--4-4---7-----------------------------|
A|---------------------------------------------------------------|
E|---------------------------------------------------------------|



************************************

| h  Hammer-on
| p  Pull-off
| s  slide

************************************
Suggest correction
Creating personal tab
Creating personal tab
You can edit any tab online and save it as your Personal.

You can edit, replace or remove any tab part or add personal notes – all changes will be seen only by you.

Personal tabs can be accessed anytime from any device, even offline.
Learn more »
Give kudos to tab author, rate the tab!
1 2 3 4 5
comments
print report bad tab
guest
You may want to rate the tab now too:
select rating
Wanna post a correction for this tab? Suggest correction