Oops, an error
Loading. Please wait.

Superstar Tab

version 1
version 1

Whole song

9,092 views 6 this week
no commentswrite comment
1 2 3 4 5
accurate
x 3
add to favorites
launch autoscroll
font size
0
reset
how to read this tab
guitar tuner
Autoscroll
slow
fast
+/-
esc
set tempo
stop
Help us to improve Ultimate-Guitar.com Take our survey!
×
Contributor
Intro and Verse:

e|---------------------------------------------------| x6
B|-------15-------------17---------15-------------17-|
G|----14----14-------14---------14----14-------14----|
D|-12----------12/14---------12----------12/14-------|
A|---------------------------------------------------|
E|---------------------------------------------------|

These chords can also be played under the lead.
    D           A             Bm            A
e|--2-----------0-------------2-------------0--------|
B|--3-----------2-------------3-------------2--------|
G|--2-----------2-------------4-------------2--------|
D|--0-----------2-------------4-------------2--------|
A|--------------0-------------2-------------0--------|
E|---------------------------------------------------|


Rhythm Guitar: 0:37

e|--10-----9------10-----9------10-----9------10-----9-------| x2
B|--10-----10-----10-----10-----10-----10-----10-----10------|
G|-----------------------------------------------------------|
D|-----------------------------------------------------------|
A|-----------------------------------------------------------|
E|-----------------------------------------------------------|
And I knew from the first note played...

Chorus:
    Bm               G                A                D       A
e|--2-2-2-2-2-2-2-2--3-3-3-3-3-3-3-3--0-0-0-0-0-0-0-0--2-2-2-2-0-0-0-0-|
B|--3-3-3-3-3-3-3-3--0-0-0-0-0-0-0-0--2-2-2-2-2-2-2-2--3-3-3-3-2-2-2-2-|
G|--4-4-4-4-4-4-4-4--0-0-0-0-0-0-0-0--2-2-2-2-2-2-2-2--2-2-2-2-2-2-2-2-|
D|--4-4-4-4-4-4-4-4--0-0-0-0-0-0-0-0--2-2-2-2-2-2-2-2--0-0-0-0-2-2-2-2-|
A|--2-2-2-2-2-2-2-2--2-2-2-2-2-2-2-2--0-0-0-0-0-0-0-0----------0-0-0-0-|
E|-------------------3-3-3-3-3-3-3-3-----------------------------------|
So dim that spotlight...

    Bm               G                A                D       A
e|--2-2-2-2-2-2-2-2--3-3-3-3-3-3-3-3--0-0-0-0-0-0-0-0--2-2-2-2-0-0-0-0-|
B|--3-3-3-3-3-3-3-3--0-0-0-0-0-0-0-0--2-2-2-2-2-2-2-2--3-3-3-3-2-2-2-2-|
G|--4-4-4-4-4-4-4-4--0-0-0-0-0-0-0-0--2-2-2-2-2-2-2-2--2-2-2-2-2-2-2-2-|
D|--4-4-4-4-4-4-4-4--0-0-0-0-0-0-0-0--2-2-2-2-2-2-2-2--0-0-0-0-2-2-2-2-|
A|--2-2-2-2-2-2-2-2--2-2-2-2-2-2-2-2--0-0-0-0-0-0-0-0----------0-0-0-0-|
E|-------------------3-3-3-3-3-3-3-3-----------------------------------|
...you, I'm no one special just another wide-eyed girl...

    Bm               G                A
e|--2-2-2-2-2-2-2-2--3-3-3-3-3-3-3-3--0-0-0-0-0-0-0-0-0----------------|
B|--3-3-3-3-3-3-3-3--0-0-0-0-0-0-0-0--2-2-2-2-2-2-2-2-2----------------|
G|--4-4-4-4-4-4-4-4--0-0-0-0-0-0-0-0--2-2-2-2-2-2-2-2-2----------------|
D|--4-4-4-4-4-4-4-4--0-0-0-0-0-0-0-0--2-2-2-2-2-2-2-2-2----------------|
A|--2-2-2-2-2-2-2-2--2-2-2-2-2-2-2-2--0-0-0-0-0-0-0-0-0----------------|
E|-------------------3-3-3-3-3-3-3-3-----------------------------------|
Give me a photograph...

Rhythm Guitar Chorus:

e|10-10-10-10-10-10-10-10-10-10-10-10-10-10-10-10-9--9--9--9--9--9--9--9--10-10-10-10-9--9--9--9-|
B|10-10-10-10-10-10-10-10-10-10-10-10-10-10-10-10-10-10-10-10-10-10-10-10-10-10-10-10-10-10-10-10|
G|-----------------------------------------------------------------------------------------------|
D|-----------------------------------------------------------------------------------------------|
A|-----------------------------------------------------------------------------------------------|
E|-----------------------------------------------------------------------------------------------|
So dim that spotlight...

e|10-10-10-10-10-10-10-10-10-10-10-10-10-10-10-10-9--9--9--9--9--9--9--9--10-10-10-10-9--9--9--9-|
B|10-10-10-10-10-10-10-10-10-10-10-10-10-10-10-10-10-10-10-10-10-10-10-10-10-10-10-10-10-10-10-10|
G|-----------------------------------------------------------------------------------------------|
D|-----------------------------------------------------------------------------------------------|
A|-----------------------------------------------------------------------------------------------|
E|-----------------------------------------------------------------------------------------------|
...you, I'm no one special just another wide-eyed girl...

e|-10-10-10-10-10-10-10-10-10-10-10-10-10-10-10-10-9--9--9--9--9--9--9--9--12--|
B|-10-10-10-10-10-10-10-10-10-10-10-10-10-10-10-10-10-10-10-10-10-10-10-10-12--|
G|-----------------------------------------------------------------------------|
D|-----------------------------------------------------------------------------|
A|-----------------------------------------------------------------------------|
E|-----------------------------------------------------------------------------|
Give me a photograph...

e|----------------------------------------------------|
B|----------------------------------------------------|
G|-----------11\-7--6-7-9-7------------11\-7--6-7-9-7-|
D|----------------------------------------------------|
A|----------------------------------------------------|
E|----------------------------------------------------|
...Superstar

Repeat the Verse and Chorus:

The next two lines are the small riffs that are played over the main riff. Listen to the 
for timing.
e|----------10-----10-----10-----10-----10-11-------------------------------|
B|------9-9----9-9----9-9----9-9----9-9-------------------------------------|
G|-------------------------------------------------------------9-9-7-9/11---|
D|--------------------------------------------------------------------------|
A|--------------------------------------------------------------------------|
E|--------------------------------------------------------------------------|

e|--------------------------------------------------------------------------|
B|--10-10p7-10/12-----------------------------------------------------------|
G|-------------------------------------------7h9p7--9h11p9--11h12p11-9-7----|
D|--------------------------------------------------------------------------|
A|--------------------------------------------------------------------------|
E|--------------------------------------------------------------------------|

Bridge:
   E       B       F#      A       E       B       F#      D
e|-----------------2-------0-----------------------2-------2------------------2--|
B|---------4-------2-------2---------------4-------2-------3----------------3----|
G|-1-------4-------3-------2-------1-------4-------3-------2--------------2------|
D|-2-------4-------4-------2-------2-------4-------4-------0------------0--------|
A|-2-------2-------4-------0-------2-------2-------4-----------------------------|
E|-0---------------2---------------0---------------2-----------------------------|
You played in bars...

Repeat the Chorus:

e|---------------------------------------------------| play this until the
B|-------15-------------17---------15-------------17-| end of the song, your
G|----14----14-------14---------14----14-------14----| final note should be
D|-12----------12/14---------12----------12/14-------| a D chord.
A|---------------------------------------------------|
E|---------------------------------------------------|

Enjoy!
comments
We did not receive enough feedback on this tab! Please rate:
print report bad tab
1 2 3 4 5
I want to post or [tab]
guest
You may want to rate the tab now too:
select rating
Please do not post tabs as comments. Select "correction" instead!