Oops, an error
Loading. Please wait.

Teardrops On My Guitar Tab

version 1
version 1

Whole song

Interactive

Video

361,066 views 84 this week
12 commentsread comments
1 2 3 4 5
excellent!
x 27
add to favorites
launch autoscroll
font size
0
reset
how to read this tab
guitar tuner
Autoscroll
slow
fast
+/-
esc
set tempo
stop
Help us to improve Ultimate-Guitar.com Take our survey!
×
Contributor
Capo
impliedlove 1,814
3rd fret
-----------------------------------------------------------------------
                  TEARDROPS ON MY GUITAR – Taylor Swift
-----------------------------------------------------------------------
Tabbed by: Steph
Email: clichedplatitude@hotmail.com

Tuning: capo 3

You can exchange the chords for just G Em C and D, 
but when picking it sounds better with the ones I've written out.

**Note: If you're picking the chords, find the appropriate pattern, 
basically just up and down the chords, for example:

    G               Em7           Cadd9            Dsus
e|------------------------------------------------------------------|
B|----------------------------------------------3-------3-----3-----|
G|------0-------0-------0-------0-------0-----0---0---2---2-----2---|
D|----0---0---0---0---2---2---2---2---2---2---------0-------0-----0-|
A|----------2---------------2-------3-------3-----------------------|
E|--3---------------0-----------------------------------------------|


Intro:

   G       Em7        Cadd9       Dsus
e|-----------------------------------------|
B|-----------------------------------------|
G|-2-0---0--2-2-0---0--2-2-0----0----------|
D|-----4----------4----------4----0--------|
A|----------------------------------3-3-2--|
E|-----------------------------------------|


Verses:
G     Em7    Cadd9  Dsus
Drew looks at me, I fake a smile so he wont see
G      Em7          Cadd9   Dsus
That I want and Im needing, everything that we should be
Em7                   Cadd9
I bet shes beautiful, that girl he talks about
G                            Dsus
And shes got everything that I have to live without


G      Em7    Cadd9  Dsus
Drew talks to me, I laugh cause its so damn funny
G      Em7      Cadd9  Dsus
That I cant even see, anyone when hes with me
Em7                      Cadd9
He says hes so in love, hes finally got it right
G                        Dsus
I wonder if he knows hes all I think about at night


Chorus:
G                      Dsus
Hes the reason for the teardrops on my guitar
Em7                          Cadd9
The only thing that keeps me wishing on a wishing star
G                   Dsus                          Em7       Cadd9
Hes the song in the car I keep singing, dont know why I do


Verse:
G    Em7     Cadd9   Dsus
Drew walks by me,   can he tell that I can't breathe?
G            Em             Cadd9
And there he goes so perfectly
            Dsus
The kind of flawless I wish I could be
Em7                         Cadd9
Shed better hold him tight, give him all her love
G                            Dsus
Look in those beautiful eyes and know she's lucky cause


Chorus:
G                       Dsus
He's the reason for the teardrops on my guitar
Em7                          Cadd9
The only thing that keeps me wishing on a wishing star
G                    Dsus                           Em7       Cadd9
He's the song in the car I keep singing, don't know why I do


**Musical interlude:
    Album version = intro

    Radio version = 
   G       Em7        Cadd9       Dsus4
e|----------------------------------------------------|
B|-1/3-3-3/5-3----------------------------------------|
G|-------------2-4-4-2-4-4-4/5-4-2-0------------------|
D|-----------------------------------4-5-5-4-2-0------|
A|----------------------------------------------------|
E|----------------------------------------------------|


Verse:
Em7                    Cadd9
So I drive home alone, as I turn out the light
G                           Dsus
I put his picture down, and maybe get some sleep tonight


Chorus:
G                            Dsus
Cause hes the reason for the teardrops on my guitar
Em7                     Cadd9
The only one whos got enough of me to break my heart
G                   Dsus                          Em7       Cadd9
Hes the song in the car I keep singing, dont know why I do
        G                          Dsus         
Hes the time, taken up, but theres never enough
        Em7                     Cadd9
And hes all that I need to fall into


End:
G    Em7     Cadd9  Dsus                      G
Drew looks at me, I fake a smile so he won't see




Chords:
    G  Em7  Cadd9 Dsus
e|--3---3-----3-----3--|
B|--3---3-----3-----3--|
G|--0---0-----0-----2--|
D|--0---2-----2-----0--|
A|--2---2-----3-----x--|
E|--3---0-----x-----x--|
Suggest correction new What's this?
You can suggest a correction to this tab. Community and Mods will review your correction and vote to approve or reject it.
comments
print report bad tab
12 comments total. Showing first comments.
0 reply
DarkDallasNight 205 wrote on March 4 2007, 11:47 pm

how would the strummiung pattern go lol ty

0 reply
DarkDallasNight 205 wrote on March 4 2007, 11:55 pm

how would picking pattern go to lol i suck

0 reply
impliedlove 1,814 wrote on March 16 2007, 12:52 pm

well you can strum whatever's comfortable to you, as long as you find the beat. i basically do down...down down up which would be 1 (let ring for 2) 3 4+ during the verse and down down down down up which is 1 2 3 4+ during the chorus

I want to post or [tab]
guest
You may want to rate the tab now too:
select rating
Please do not post tabs as comments. Select "correction" instead!