Oops, an error
Loading. Please wait.

Teardrops On My Guitar Tab

version 2
version 2

Whole song

Interactive

Video

96,951 views 6 this week
no commentswrite comment
1 2 3 4 5
accurate
x 6
add to favorites
launch autoscroll
font size
0
reset
how to read this tab
guitar tuner
Tab Pro tools
  • play this tab
  • loop segment
  • change instrument
  • show fretboard
  • metronome
×
Best way to learn
"Teardrops On My Guitar"
Autoscroll
slow
fast
+/-
esc
set tempo
stop
Contributor
Difficulty
intro e|---------5-3--2-3----5-5-3--2-3----5-5-3--2-3------------------------|
        B|---------------------------------------------------3-1-1-0---------|
        G|-------------------------------------------------------------------|
        D|-------------------------------------------------------------------|
        A|-------------------------------------------------------------------|
        E|-------------------------------------------------------------------|

       different way to play intro
        e|------------------------------------------------------------------|
        B|------------------------------------------------------------------|
        G|---2-0---0----2-2-0---0-----2-2-0---0-----------------------------|
        D|-------4------------4--------------4-------0----------------------|
        A|---------------------------------------------3-3-2----------------|
        E|------------------------------------------------------------------|

picking pattern for verses
                 G                           Em7                                Cadd9    
              Dsus
e|-----------------------------------------------------------------------------------|
B|--------------------------------------------------------3--------3-----3-----------|
G|------0---------0---------0---------0---------0------0---0----2---2-----2----------|I
D|---0----0----0----0----2----2----2----2----2----2----------0--------0-----0--------|
A|-----------2-------------------2---------3---------3-------------------------------|
E|-3-------------------0-------------------------------------------------------------|

Chords:     G         Em7           Cadd9           Dsus
e|--------3------3----------3----------3----------|
B|--------0------3----------3----------3----------|
G|--------0------0----------0----------2----------|
D|--------0------2----------2----------0---------|
A|--------2------2----------3----------x----------|
E|--------3------0----------x----------x----------|

Verse 1
G       Em7   Cadd9  Dsus
Drew looks at me, I fake a smile so he won't see
G        Em7             Cadd9     Dsus
That I want and I'm needing, everything that we should be
Em7                          Cadd9
I bet she's beautiful, that girl he talks about
G                                             Dsus
And she's got everything that I have to live without

G          Em7      Cadd9      Dsus
Drew talks to me, I laugh cause it's so damn funny
G        Em7      Cadd9     Dsus
That I can't even see, anyone when he's with me
Em7                              Cadd9
He says he so in love, he's finally got it right
G                                     Dsus
I wonder if he knows he's all I think about at night


Chorus
G                                 Dsus
He's the reason for the teardrops on my guitar
Em7                                       Cadd9
The only thing that keeps me wishing on a wishing star
G                           Dsus                                        Em7          Cadd9
He's the song in the car I keep singing, don't know why I do


Verse 2
G       Em     Cadd9   Dsus
Drew walks by me, can he tell that I can't breathe?
G                  Em               Cadd9                 Dsus
And there he goes so perfectly, the kind of flawless I wish I could be
Em7                                    Cadd9
She'd better hold him tight, give him all her love
G                                          Dsus
Look in those beautiful eyes and know she's lucky cause


Chorus
G                                 Dsus
He's the reason for the teardrops on my guitar
Em7                                      Cadd9
The only thing that keeps me wishing on a wishing star
G                            Dsus                                       Em7          Cadd9
He's the song in the car I keep singing don't know why I do


Intro again then solo, I don't know it exactly but it's
G     Em7   Cadd9   Dsus  x2

Bridge
Em7                            Cadd9
So I drive home alone, as I turn out the light
G                                        Dsus
I put his picture down, and maybe get some sleep tonight


Chorus
G                                           Dsus
Cause he's the reason for the teardrops on my guitar
Em7                                  Cadd9
The only one who's got enough of me to break my heart
G                           Dsus                                        Em7           Cadd9
He's the song in the car I keep singing don't know why I do

Outro
G       Em7    Cadd9  Dsus                              G (slow strum)
Drew looks at me, I fake a smile so he won't see
comments
print report bad tab
I want to post or [tab]
guest
You may want to rate the tab now too:
select rating
Please do not post tabs as comments. Select "correction" instead!