Oops, an error
Loading. Please wait.

The Best Day Tab

31,349 views 12 this week
no commentswrite comment
1 2 3 4 5
excellent!
x 7
add to favorites
launch autoscroll
font size
0
reset
how to read this tab
guitar tuner
Autoscroll
slow
fast
+/-
esc
set tempo
stop
Help us to improve Ultimate-Guitar.com Take our survey!
×
Author
Difficulty
novice
all the chords in the song are: C Am F G C/B
 I think it's easier to use your fingers instead of using a guitar pick, but
that's just me. Enjoy!
My youtube is www.youtube.com/kathywmusic
I'll be adding videos soon.

CAPO on first fret

tab:
intro          C                Am                 F
e|---------------------------------------------------1--------1-------|
B|---3-1-0-1-----1--------1--------1--------1----------1--------1-----|
G|-----------------0--------0--------2--------2----------2--------2---|
D|-------------------2--------2--------2--------2--3--------3---------|
A|-------------3--------3--------0--------0---------------------------|
E|--------------------------------------------------------------------|

 G
---3--------3-----|
-----3--------3---|
-------0--------0-|
------------------|Intro (2x)
------------------|
-3--------3-------|

Verse(I'm five years old..)

         C                Am                 F
e|-----------------------------------------1--------1-------|
B|-----1--------1--------1--------1----------1--------1-----|
G|-------0--------0--------2--------2----------2--------2---|
D|---------2--------2--------2--------2--3--------3---------|
A|---3--------3--------0--------0---------------------------|
E|----------------------------------------------------------|

 G
---3--------3-----|
-----3--------1---|
-------0--------0-|
------------------|Verse (4x)
------------------|
-3--------3-------|

Chorus(I don't know why....)

   F              G                C        C/B    Am
e|--1-------1-------3-------3--------------------------------------|
B|----1-------1-------3-------3-------1------1-------1-------1-----|
G|------2-------2-------0-------0-------0------0-------2-------2---|
D|-3-------3------------------------------2------0-------2-------2-|
A|----------------------------------3-------2-------0-------0------|
E|-----------------3-------3---------------------------------------|

 F              G                C      C/B     Am
--1-------1-------3-------3--------------------------------------|
----1-------1-------3-------3-------1------1-------1-------1-----|
------2-------2-------0-------0-------0------0-------2-------2---|
-3-------3------------------------------2------0-------2-------2-|
----------------------------------3-------2-------0-------0------|
-----------------3-------3---------------------------------------|

 F              G                C      C/B     Am
--1-------1-------3-------3--------------------------------------|
----1-------1-------3-------3-------1------1-------1-------1-----|
------2-------2-------0-------0-------0------0-------2-------2---|
-3-------3------------------------------2------0-------2-------2-|
----------------------------------3-------2-------0-------0------|
-----------------3-------3---------------------------------------|

 F               G
--1-------1-------3-------3-------|
----1-------1-------3-------3-----|
------2-------2-------0-------0---|
-3-------3------------------------|
----------------------------------|
-----------------3-------3--------|

Verse(I'm thirteen now...)

     C                Am                 F
e|-----------------------------------------1--------1-------|
B|-----1--------1--------1--------1----------1--------1-----|
G|-------0--------0--------2--------2----------2--------2---|
D|---------2--------2--------2--------2--3--------3---------|
A|---3--------3--------0--------0---------------------------|
E|----------------------------------------------------------|

 G
---3--------3-----|
-----3--------3---|
-------0--------0-|
------------------|Verse (4x)
------------------|
-3--------3-------|


                                      Bridge(I have an excellent father..)
     C                C                  F              F
e|-----------------------------------------1-------1------1------1-----|
B|-----1--------1--------1--------1----------1-------1------1------1---|
G|-------0--------0--------0--------0----------2-------2------2------2-|
D|---------2--------2--------2--------2---3-------3------3------3------|
A|---3--------3--------3--------3--------------------------------------|
E|---------------------------------------------------------------------|

 Am              Am               F                 F
------------------------------------1--------1--------1-------1-----------|
---1-------1-------1-------1----------1--------1--------1-------1---------|
-----2-------2-------2-------2----------2--------2--------2-------2-------|
-------2-------2-------2-------2--3--------3--------3-------3-------------|
-0-------0-------0-------0------------------------------------------------|
--------------------------------------------------------------------------|

 Am                 G                F                 F
----------------------3--------3--------1--------1-------1--------1--------|
----1--------1----------3--------3--------1--------1-------1--------1------|
------2--------2----------0--------0--------2--------2-------2--------2----|
--------2--------2--------------------3--------3--------3-------3----------|
--0--------0---------------------------------------------------------------|
--------------------3--------3---------------------------------------------|

  C                 C/B                 F
-------------------------------------------1--------1--------|
----1--------1---------1--------1------------1--------1------|
------0--------0---------0--------0------------2--------2----|
--------2--------2---------0--------0----3--------3----------|
--3--------3---------2--------2------------------------------|
-------------------------------------------------------------|

  F                 G                G
----1--------1--------3--------3--------3--------3---------|
------1--------1--------3--------3--------3--------3-------|
--------2--------2--------0--------0--------0--------0-----|
--3--------3-----------------------------------------------|
-----------------------------------------------------------|
--------------------3--------3--------3--------3-----------|

Verse: (there is a video..)
         C                Am                 F
e|-----------------------------------------1--------1-------|
B|-----1--------1--------1--------1----------1--------1-----|
G|-------0--------0--------2--------2----------2--------2---|
D|---------2--------2--------2--------2--3--------3---------|
A|---3--------3--------0--------0---------------------------|
E|----------------------------------------------------------|

 G
---3--------3-----|
-----3--------3---|
-------0--------0-|
------------------|Verse (4x)
------------------|
-3--------3-------|

Chorus: (Now I know why...)

   F              G                C        C/B    Am
e|--1-------1-------3-------3--------------------------------------|
B|----1-------1-------3-------3-------1------1-------1-------1-----|
G|------2-------2-------0-------0-------0------0-------2-------2---|
D|-3-------3------------------------------2------0-------2-------2-|
A|----------------------------------3-------2-------0-------0------|
E|-----------------3-------3---------------------------------------|

 F              G                C      C/B     Am
--1-------1-------3-------3--------------------------------------|
----1-------1-------3-------3-------1------1-------1-------1-----|
------2-------2-------0-------0-------0------0-------2-------2---|
-3-------3------------------------------2------0-------2-------2-|
----------------------------------3-------2-------0-------0------|
-----------------3-------3---------------------------------------|

 F              G                 C      C/B     Am
--1-------1-------3-------3--------------------------------------|
----1-------1-------3-------3-------1------1-------1-------1-----|
------2-------2-------0-------0-------0------0-------2-------2---|
-3-------3------------------------------2------0-------2-------2-|
----------------------------------3-------2-------0-------0------|
-----------------3-------3---------------------------------------|

 F               G
--1-------1-------3-------3-------|
----1-------1-------3-------3-----|
------2-------2-------0-------0---|
-3-------3------------------------|
----------------------------------|
-----------------3-------3--------|


(Taking this chance to say....)
  C     C/B     Am
e|-------------------------------|
B|--1------1-------1-------1-----|
G|----0------0-------2-------2---|
D|------2------0-------2-------2-|
A|3-------2-------0-------0------|
E|-------------------------------|

 F               G               C (end on C)
--1-------1-------3-------3-----------------------|
----1-------1-------3-------2------1--------1-----|
------2-------2-------0-------0------0--------0---|
-3-------3-----------------------------2--------2-|
---------------------------------3--------3-------|
-----------------3-------3------------------------|
Suggest correction
What's this?
You can suggest a correction to this tab. Community and Mods will review your correction and vote to approve or reject it.
comments
print report bad tab
guest
You may want to rate the tab now too:
select rating
Please do not post tabs as comments. Select "correction" instead!