Oops, an error
Loading. Please wait.

The Way I Loved You Bass Tab

4,917 views 1 this week
no commentswrite comment
1 2 3 4 5
please rate
add to favorites
launch autoscroll
font size
0
reset
guitar tuner
Autoscroll
slow
fast
+/-
esc
set tempo
stop
Help us to improve Ultimate-Guitar.com Take our survey!
×
Hi,

Artist: Taylor Swift
Track: The Way I Loved You (Album Version)
Album: Fearless

Tuning: Standard (EADG)

Please rate!

Intro:

G|----------------|----------------|----------------|--------------|
D|----------------|----------------|----------------|-----8------10|
A|8-8-8-8-8-8-8-8-|3-3-3-3-3-3-3-3-|----------------|--------------|
E|----------------|----------------|3-3-3-3-3-3-3-3-|6-6----6/8-8--|

Verse:

G|----------------|----------------|----------------|--------------|
D|----------------|----------------|----------------|--------10-8--|
A|8----------8-8--|3----------3-3--|----------------|------------10|
E|----------------|----------------|3----------3-3--|6-6-8-8-------|

Pre-Chorus ("You look beautiful tonight")

G|----------------|
D|----------------|
A|----------------|
E|6-6-8-9-9-11-13-|

Chorus

G|---10---------10|---5-----------5|----------------|--------------|
D|----------------|----------------|---5-----------5|----8-------10|
A|8---------8-8---|3---------3-3---|----------------|--------------|
E|----------------|----------------|3---------3-3---|6-6----8-8----|

Bridge

G|----------------|----------------|----------------|---------5-3--|
D|----------------|----------------|3----3----3----3|-------------5|
A|----------------|1----1----1----1|----------------|3---3---3-----|
E|3----3----3----3|----------------|----------------|--------------|

G|----------------|----------------|----------------|--------------|
D|----------------|----------------|3----3----3----3|--------------|
A|----------------|1----1----1----1|----------------|3----3----1---|
E|3----3----3----3|----------------|----------------|--------------|

Order

Intro
Verse
Chorus
Verse
Chorus
Bridge
Chorus x2

Thanks for Looking! 

bassmastar_gaz
Suggest correction
Give kudos to tab author, rate the tab!
1 2 3 4 5
comments
print report bad tab
guest
You may want to rate the tab now too:
select rating
Wanna post a correction for this tab? Suggest correction