Oops, an error
Loading. Please wait.

We Are Never Ever Getting Back Together Bass Tab

version 1
version 1

Whole song

Interactive

13,171 views 21 this week
2 commentsread comments
1 2 3 4 5
x 7
add to favorites
launch autoscroll
font size
0
reset
guitar tuner
Autoscroll
slow
fast
+/-
esc
set tempo
stop
Help us to improve Ultimate-Guitar.com Take our survey!
×
Author
We are Never Ever Getting Back Together
Taylor Swift
Tabbed by: avill616@yahoo.com

Prechorus (2x)
G|--------------------------------------------------|
D|--------------------------------------------------|
A|-15-15-15-15-15-15-15-15--10-10-10-10-10-10-10-10-|
E|--------------------------------------------------|

G|----------------------------------|
D|----------------------------------|
A|-5-5-5-5-5-5-5-5--7-7-7-7-7-7-7-7-|
E|----------------------------------|

Chorus 
G|-----------------------|    |---------------------------------|
D|-----------------------|    |---------------------------------|
A|-3-3-----5-5--7-7--9-9-|2x  |-3-3-3-3-3-3-3-3-----------------|
E|-----3-3---------------|    |-----------------3-3-3-3-3-3-3-3-|

G|----------------------------------|-------------------|
D|----------------------------------|-------------------|
A|-5-5-5-5-5-5-5-5--7-7-7-7-9-9-9-9-|-3-3------5-5--5-5-|
E|----------------------------------|-----3-3-----------|

Verse3 (2x)
G|--------------------------------------------------|
D|--------------------------------------------------|
A|-15-15-15-15-15-15-15-15--10-10-10-10-10-10-10-10-|
E|--------------------------------------------------|

G|----------------------------------|
D|----------------------------------|
A|-5-5-5-5-5-5-5-5--7-7-7-7-7-7-7-7-|
E|----------------------------------|

Repeart prechorus
Repeat chorus 

Post chorus (2x)
G|--------------------------------------------------|
D|--------------------------------------------------|
A|-15-15-15-15-15-15-15-15--10-10-10-10-10-10-10-10-|
E|--------------------------------------------------|

G|----------------------------------|
D|----------------------------------|
A|-5-5-5-5-5-5-5-5--7-7-7-7-7-7-7-7-|
E|----------------------------------|

Narration (3x)
G|--------------------------------------------------|
D|--------------------------------------------------|
A|-15-15-15-15-15-15-15-15--10-10-10-10-10-10-10-10-|
E|--------------------------------------------------|

G|----------------------------------|
D|----------------------------------|
A|-5-5-5-5-5-5-5-5--7-7-7-7-7-7-7-7-|
E|----------------------------------|

G|--------------------------------------------------|
D|--------------------------------------------------|
A|-15-15-15-15-15-15-15-15--10-10-10-10-10-10-10-10-|
E|--------------------------------------------------|

G|-----------------|
D|-----------------|
A|-5-5-5-5-5-5-5-5-|
E|-----------------|

Last chorus
G|------------------------------------------------------------------|
D|------------------------------------------------------------------|
A|-3-3-3-3-3-3-3-3-----------------5-5-5-5-5-5-5-5--7-7-7-7-9-9-9-9-|7x
E|-----------------3-3-3-3-3-3-3-3----------------------------------|

G|-------------------|
D|-------------------|
A|-3-3------5-5--5-5-|
E|-----3-3-----------|
Suggest correction
comments
print report bad tab
2 comments total.
0 reply
bullet31 10 Feb 13, 2013 08:52 PM

fun as hell to play even for a n00b like me!

0 reply
tbate54 10 Mar 01, 2014 05:39 AM

This is woeful. Sorry man, not a lot right here.

guest
You may want to rate the tab now too:
select rating
Wanna post a correction for this tab? Suggest correction