Oops, an error
Loading. Please wait.

You Belong With Me Bass Tab

version 1
version 1

Whole song

Interactive

28,882 views 81 this week
no commentswrite comment
1 2 3 4 5
excellent!
x 5
add to favorites
launch autoscroll
font size
0
reset
guitar tuner
Tab Pro tools
  • play this tab
  • loop segment
  • change instrument
  • show fretboard
  • metronome
Autoscroll
slow
fast
+/-
esc
set tempo
stop
Contributor
Difficulty
novice
G-------------------------------------------------------------------]
D--4---4---4---4----------------------------------------------------]
A------------------4---4---4---4-------------------2---2---2----2h4-]
E----------------------------------4---4---4---4--------------------]
1  Youre on the phone...
5  I Walk in the streets...

G---------------------------------------------------------------------]
D--4---4---4---4------------------------------------------------------]
A------------------4---4---4---4-------------------2---2---2---2h4-2--]
E----------------------------------4---4---4---4----------------------]
2   Im in the room...
6   Youve got a smile...

G----------------------------------------------------------]
D----------------------------------------------------------]
A----------2---------------4---------------2-------4-------]
E--4---------------2---------------4-----------------------]
3   She wears short skirts...

G---------------------------------------------------------------------]
D---------------------------------------------------------------------]
A------------------4-4-4-4-4-4-4-4-----------------2-----------2h4----]
E--2-2-2-2-2-2-2-2-----------------4-4-4-4-4-4-4-4----------2---------]
4   If you could see that...

G-------------------------------------------------------------------]
D-------------------------------------------------------------------]
A----------2---------------4---------------2-------4----/4-4-4-4----]
E--4---------------2---------------4--------------------------------]
7   She wears high heels...

G----------------------------------------------------------------------]
D----------------------------------------------------------------------]
A------------------4-4-4-4-4-4-4-4-----------------2-2-2-2-2-2-2h4-2h4-]
E--2-2-2-2-2-2-2-2-----------------4-4-4-4-4-4-4-4---------------------]
8   If you could see that...

G---------------------------------------------------------------------]
D--4-4-4-4-4-4-4-4----------------------------------------------------]
A------------------4-4-4-4-4-4-4-4-----------------2-2-2-2-2-2-2-2----]
E----------------------------------4-4-4-4-4-4-4-4--------------------]
9   Standing by you waiting...
10                                                        Oh, I remember...

G---------------------------------------------------------------------]
D------------------4-------------------------------4------------------]
A----------2---------------4---------------2--------------4-----------]
E--4-------------------------------4----------------------------------]
11  Driving to my house...

G------------------------------------------------------------------------------]
D---------------------------------------------------------9-----/9-9-7-7-------]
A------------------------------------------------------------------------------]
E--------------------------------------------------4---------------------------]
12   Cant you see that Im...

G------------------------------------------------------------------------]
D--4-4-4-4-4-4-4-4-------------------------------------------------------]
A------------------4-4-4-4-4-4-4-4-------------------2-2-4-4-6-6-/9-9----]
E----------------------------------4-4-6-6-7-7-/11-11--------------------]
13   Standing by you waiting...

G--------------------------------------------------------------------------]
D--------------------------------------------------------------------------]
A------------------4-4-4-4-4-4-4-4-----------------2-2-2-2-2-2-2-2---------]
E--2-2-2-2-2-2-2-2-----------------4-4-4-4-4-4-4-4-----------------2-------]
14                 You belong with me....
comments
print report bad tab
I want to post or [tab]
guest
You may want to rate the tab now too:
select rating
Please do not post tabs as comments. Select "correction" instead!