Oops, an error
Loading. Please wait.

Hanging From A Tree Tab

366 views 1 this week
no commentswrite comment
1 2 3 4 5
please rate
add to favorites
launch autoscroll
font size
0
reset
how to read this tab
guitar tuner
Autoscroll
slow
fast
+/-
esc
set tempo
stop
Help us to improve Ultimate-Guitar.com Take our survey!
×
Author
Tabbed by Chris Connelly (Messiah01)

This is a really fun song to jam over and it's very simple. For the solo, Josh 
Clark just uses his Tubescreamer and solos away in F#m/Amaj. Enjoy! 

Intro/Verse - 

E|------------0-0-0-0--------2-2-2-------| 
B|------------0-0-0-0--------3-3-3-------|
G|-2-0-2-0-2--1-1-1-1--2-0-2-2-2-2-2-0-2-| 4x
D|-2-0-2-0-2--2-2-2-2--2-0-2-0-0-0-2-0-2-|
A|-0---0---0--2-2-2-2--0---0-------0---0-|
E|------------0-0-0-0--------------------| 
       A         E       A     D     A 

Chorus -  

"Believe too much...."

E|-2-2-2-2-2-2-2-2--2-2-2-2-2-2-2-2--0-0-0-0-0-0-0-0--0-0-0-0-0-0-0-0-|
B|-2-2-2-2-2-2-2-2--3-3-3-3-3-3-3-3--2-2-2-2-2-2-2-2--0-0-0-0-0-0-0-0-|
G|-2-2-2-2-2-2-2-2--2-2-2-2-2-2-2-2--2-2-2-2-2-2-2-2--1-1-1-1-1-1-1-1-|
D|-4-4-4-4-4-4-4-4--0-0-0-0-0-0-0-0--2-2-2-2-2-2-2-2--2-2-2-2-2-2-2-2-|
A|-4-4-4-4-4-4-4-4-------------------0-0-0-0-0-0-0-0--2-2-2-2-2-2-2-2-|
E|-2-2-2-2-2-2-2-2------------------------------------0-0-0-0-0-0-0-0-| 

         F#m              D                 A               E 


Riff after Chorus - 

E|--------------------------|
B|--------------------------|
G|-2----------------------2-|
D|-2-----2-2/4\2----------2-|
A|-0-2/4---------2/4\2-0--0-|
E|--------------------------| 


Those are the only major parts of the songs besides some noodling around in F#m/Amaj. Enjoy!



Suggest correction
What's this?
You can suggest a correction to this tab. Community and Mods will review your correction and vote to approve or reject it.
comments
We did not receive enough feedback on this tab! Please rate:
print report bad tab
1 2 3 4 5
guest
You may want to rate the tab now too:
select rating
Please do not post tabs as comments. Select "correction" instead!