Oops, an error
Loading. Please wait.

The Invasion Tab

85 views 1 this week
no commentswrite comment
1 2 3 4 5
please rate
add to favorites
launch autoscroll
font size
0
reset
how to read this tab
guitar tuner
Autoscroll
slow
fast
+/-
esc
set tempo
stop
Help us to improve Ultimate-Guitar.com Take our survey!
×
Author
Tea Leaf Green 
The Invasion 
Tabbed by Bootsy Love 

This is a jam that started off being played, then segued into "Sex in the 70's." 
It's very simple and very fun to jam on! 

Trevor's Synth Lead 
e|-17-14----14-----------------------------------------------------------|
B|-------17----17-14-17p14-----14---17-14-17p14----14--------------------|
G|--------------------------16------------------16-----16-14-16p14----14-|
D|-----------------------------------------------------------------16----|
A|-----------------------------------------------------------------------|
E|-----------------------------------------------------------------------| 

                  Pretty much an F#m Pentatonic

Josh's Groove 

e|-9---9--9--12---11-11-11-11-|
B|-10--10-10-10---12-12-12-12-|
G|-9---9--9--9----11-11-11-11-|
D|-11--11-11-11---------------|
A|-9---9--9--9----------------|
E|----------------------------|

         F#m7          B
Suggest correction
Give kudos to tab author, rate the tab!
1 2 3 4 5
comments
print report bad tab
guest
You may want to rate the tab now too:
select rating
Please do not post tabs as comments. Select "correction" instead!