Oops, an error
Loading. Please wait.

Angels Tab

version 1
version 1

Whole song

Interactive

2,483 views 1 this week
no commentswrite comment
1 2 3 4 5
x 3
add to favorites
launch autoscroll
font size
0
reset
how to read this tab
guitar tuner
Autoscroll
slow
fast
+/-
esc
set tempo
stop
Help us to improve Ultimate-Guitar.com Take our survey!
×
Song: Angels
Artist: The Tea Party
Album: The Interzone Mantras
As tabbed by Joe Muggah


Intro
This is just a backwards guitar loop of Verse A and Riff 1

Verse A (Guitar 1)
e----------------------------------------------------------
B----------------------------------------------------------
G--10m-10m-10m-10m-10m-10m-10-10---------------------------
D--10m-10m-10m-10m-10m-10m-10-10--7m-7m-7m---10m-10m-10m---
A---8m--8m--8m--8m--8m--8m--8--8--7m-7m-7m---10m-10m-10m---
E---------------------------------5m-5m-5m----8m--8m--8m---

Riff 1 (Guitar 2)
e-------8---------8---------8------------------------------
B-----8---------8---------8--------------------------------
G--10--------10--------10----------------------------------
D----------------------------------------------------------
A----------------------------------------------------------
E----------------------------------------------------------

Verse B (Guitar 2)
e-------8-------8------8------8-------8--------------------
B-----8-------8------8------8-------8----8-----------------
G--10------10-----10-----10------10------------------------
D----------------------------------------------------------
A----------------------------------------------------------
E----------------------------------------------------------

Pre-Chorus A (Guitar 1, palm muted)       end on
e----------------------------------------|--0--------------
B----------------------------------------|--0--------------
G----------------------------------------|--2--------------
D--8-8-8-8-8-8-8-8-8--7-7-7-7-7-7-7-7-7--|--3--------------
A--8-8-8-8-8-8-8-8-8--7-7-7-7-7-7-7-7-7--|--3--------------
E--6-6-6-6-6-6-6-6-6--5-5-5-5-5-5-5-5-5--|--1--------------

Pre-Chorus B (Guitar 2)
e--15---------------------15-------------------------------
B------17--15--17-------------17--15--17-------------------
G----------------------------------------------------------
D----------------------------------------------------------
A----------------------------------------------------------
E----------------------------------------------------------

Verse C (Guitar 2)
e--3-3-3-3/5-3---------------3-3-3-3/5-3-------------------
B---------------3/5-3-1-5-3---------------3/5-3-1-5-3--1-1-
G----------------------------------------------------------
D----------------------------------------------------------
A----------------------------------------------------------
E----------------------------------------------------------

Pre-Chorus C (Guitar 3)
e----------------------------------------------------------
B--3/5---3---1------3/5---3---1-------3/5---3--------------
G----------------2-----------------2-----------------------
D----------------------------------------------<7>-<7>-<7>-
A----------------------------------------------<7>-<7>-<7>-
E----------------------------------------------<5>-<5>-<5>-

Chorus
e----------------------------------------------------------
B----------------------------------------------------------
G--10-10-10-10-10-10-10-10---------------------------------
D--10-10-10-10-10-10-10-10--7-7-7-7--10-10-10-10-----------
A---8--8--8--8--8--8--8--8--7-7-7-7--10-10-10-10-----------
E---------------------------5-5-5-5---8--8--8--8-----------
("Where's my angels?")

Bridge A (Guitar 1, each hit 2 times))
e----------------------------------------------------------
B----------------------------------------------------------
G----------------------------------------------------------
D--10-10-10-10--8-8-8-8--7-7-7-7--3-3-3-3------------------
A--10-10-10-10--8-8-8-8--7-7-7-7--3-3-3-3------------------
E---8--8--8--8--6-6-6-6--5-5-5-5--1-1-1-1------------------
("Don't you hide from me...")

Bridge B (Guitar 2)
e----------------------------------------------------------
B----------------------------------------------------------
G----------------------------------------------------------
D--9-10-9-10-9-10-9-10---7-----9-10-9-10-9-10-9-10---------
A----------------------------------------------------10----
E----------------------------------------------------------

(continued)
e----------------------------------------------------------
B----------------------------------------------------------
G----------------------------------------------------------
D--9-10-9-10-9-10-9-10---7---------------------------------
A-----------------------------3/5--5/7--7/8--8/12----------
E----------------------------------------------------------

Riff 2A (Guitar 2)                              end on
e--8----8-\-6----8-\-5--------------------------|----------
B--8----8-\-6----8-\-5--------------------------|----------
G-----------------------------------------------|--9v------
D-----------------------------------------------|----------
A--------------------------3/5--5/7--7/8--8/12--|----------
E-----------------------------------------------|----------

Riff 2B (Guitar 3)
e--5-------------5-------------5---------7-8-7-5-3-5-3-2-0-
B-----3--5--3-5-----3--5--3-5------3--5--------------------
G----------------------------------------------------------
D----------------------------------------------------------
A----------------------------------------------------------
E----------------------------------------------------------

Riff 3
e--12-12-12-12-12-12h13p12-12--12h13p12-12h13p12-10-8-7----
B----------------------------------------------------------
G----------------------------------------------------------
D----------------------------------------------------------
A----------------------------------------------------------
E----------------------------------------------------------

(continued; end on)
e--12------------------------------------------------------
B------13----12---10---10\8--------------------------------
G----------------------------------------------------------
D----------------------------------------------------------
A----------------------------------------------------------
E----------------------------------------------------------

Outro
e----------------------------------------------------------
B----------------------------------------------------------
G----------------------------------------------------------
D--8---/---------------------------------------------------
A--8---/---------------------------------------------------
E--6---/---------------------------------------------------

Intro
Verse A, Riff
Verse A
Verse A, B
Pre-Chorus A, B
Verse A, C
Pre-Chorus, A, B
Chorus
Verse A, B
Verse A, C
Verse A, B, C
Pre-Chorus A, B, C
Chorus
Bridge A, B
Bridge A, Riff 2A, 2B
Pre-Chorus A, B, C
Chorus, Riff 3
Outro
Intro
Suggest correction
Give kudos to tab author, rate the tab!
1 2 3 4 5
comments
print report bad tab
guest
You may want to rate the tab now too:
select rating
Wanna post a correction for this tab? Suggest correction