Oops, an error
Loading. Please wait.

Angels Tab

version 2
version 2

Whole song

Interactive

511 views 3 this week
no commentswrite comment
1 2 3 4 5
excellent!
x 1
add to favorites
launch autoscroll
font size
0
reset
how to read this tab
guitar tuner
Tab Pro tools
  • play this tab
  • loop segment
  • change instrument
  • show fretboard
  • metronome
Autoscroll
slow
fast
+/-
esc
set tempo
stop
Contributor
Difficulty
intermediate
-------------------------------------------------------------------------------
                             ANGELS - Tea Party
-------------------------------------------------------------------------------
Tabbed by: Alex Worthy
Email: azimuth457@gmail.com

This is the acoustic version, available for viewing on YouTube.

Tuning:C~G~D~G~A~A#

Fingerpicking part(Intro, Prechorus):
e|---------------------0--------------------0~--|
B|--------------------0-0-------------------0~--|
G|-----0-------0-----0---0------0-------0---0~--|
D|---3---3---1---1--0-----0---3---3---1-----0~--|
A|-1-------1-------0--------1-------1-------0~--|
E|----------------------------------------------|

Verse/Chorus(strummed):
e|------------------------------------------|
B|------------------------------------------|
G|--------------8-8-8-8-----------3-3-3-3---|
D|--12-12-12-12-8-8-8-8--7-7-7-7--3-3-3-3---|
A|--8--8--8--8--8-8-8-8--7-7-7-7--3-3-3-3---|
E|-----------------------7-7-7-7------------|

Bridge:
e|----------------------------------------------------------------------|
B|----------------------------------------------------------------------|
G|--333-33--1111111-------------------333-33--1111111-------------------|
D|--333-33--1111111--777-77--3333333--333-33--1111111-777-77--3333333---|
A|--333-33--1111111--777-77--3333333--333-33--1111111-777-77--3333333---|
E|-------------------777-77--3333333------------------777-77--3333333---|

The bridge is tricky to figure out, it could be played a few ways,
I play it differently every time, but this is the way that I found sounded best.



************************************

| /   slide up
| \   slide down
| h   hammer-on
| p   pull-off
| ~   vibrato
| +   harmonic
| x   Mute note
| b   Bend
| pb  Pre-bend
| br  Bend release
| pbr Pre-bend release
| brb Bend release bend

************************************
comments
We did not receive enough feedback on this tab! Please rate:
print report bad tab
1 2 3 4 5
I want to post or [tab]
guest
You may want to rate the tab now too:
select rating
Please do not post tabs as comments. Select "correction" instead!