Oops, an error
Loading. Please wait.

Badger Tab

version 2
version 2

Whole song

Interactive

1,860 views 9 this week
no commentswrite comment
1 2 3 4 5
x 10
add to favorites
launch autoscroll
font size
0
reset
how to read this tab
guitar tuner
Autoscroll
slow
fast
+/-
esc
set tempo
stop
Help us to improve Ultimate-Guitar.com Take our survey!
×
Song:  The Badger
Artist:  The Tea Party
Album: The Edges of Twilight (EMI, 1995)
Tabbed by:  Taylor Dekking (t_dokk@hotmail.com)


Tuning:  low to high    D A D E A D


Intro

 (...Harmonics...................)
D|--------------------------12---|
A|----------------12-----9-------|
E|-------------------12----------| x3
D|------7------12----------------|
A|--7-------7--------------------|
D|----9---9----------------------|


             *Harmonic
D|-----10p9------------5p4--0------------0-----------------------|
A|----------(12)-------------------------------------------------|
E|---------------------------------------------------------------|
D|-----------------------------------7p5---------2h4p2p0---------|
A|--10---------------5------------------------------------4b5p0--|
D|---------------------------------5---------0-------------------|


 (...Harmonics................)
D|--12---------7---------5----|
A|----------------------------|
E|----------------------------|
D|----------------------------|
A|----------------------------|
D|--12---------7---------5----|




Verse
(Repeat 4 times)

                   *Harmonics
D|--2h4p2p0---0----------------------------|--2h4p2p0---0-------------------------5--|
A|--0-------4------------------------------|--0-------4------------------------------|
E|-----------------------------------------|-----------------------------------------|
D|------------0--------0-----------(7)-----|------------0--------0-----------(7)-----|
A|----------------(12)------(7)------------|----------------(12)------(7)------------|
D|--0---------------------------(9)---(9)--|--0---------------------------(9)-----5--|



Chorus

D|--5-----0---2h4p2p0-----------------|--5-----0---2h4p2p0---------------------|
A|-----2----------------0h2p0---------|-----2----------------0h2p0-------------|
E|------------------------------------|----------------------------------------|
D|-------------------------------2h4--|-------------------------------2h4p2p0--|
A|------------------------------------|----------------------------------------|
D|--5---------0---------5--------0----|--5---------0---------5--------0--------|


D|--5-----0---2h4p2p0-----------------|
A|-----2----------------0h2p0---------|
E|------------------------------------|
D|-------------------------------2h4--|
A|------------------------------------|
D|--5---------0---------5--------0----|


D|------------------------------------|------------------------------------|
A|--3--2p0--0h2p0---------------------|--3--2p0--0h2p0---------------------|
E|------------------------------------|------------------------------------|
D|--2----------------------0-----0----|--2----------------------0---4b5r4--|
A|--3-----------------0h2h4--4b5---0--|--3-----------------0h2h4-----------|
D|----------5-------0-----------------|----------5-------0-----------------|


                       *Hold the bend
D|-------------------------0----------|------------------------------------|
A|--3--2p0--0h2p0-----{4b5---5r4}p0---|--3--2p0----------------------------|
E|------------------------------------|------------------------------------|
D|--2---------------------------------|--2-------5h7--5----4h5p4p2p0-------|
A|--3---------------------------------|--3----------------------------0----|
D|----------5-------0-----------------|----------5-------------------------|


Back to Verse x2
Chorus

Interlude


D|--------------0-----------------|-----4--5--7--10--9---7--5/7\5--4--|
A|--------0--5-----0--------0--6--|-----5--7--9--12--10--9--7/9\7--5--|
E|--------------------------------|-----------------------------------|  x2
D|-----5-----------------5--------|-----------------------------------|
A|--6-----------------6-----------|-----------------------------------|
D|--------------------------------|--0--------------------------------|


D|--------------0-----------------|
A|--------0--5-----0--------0--6--|
E|--------------------------------|
D|-----5-----------------5--------|
A|--6-----------------6-----------|
D|--------------------------------|

             *Harmonic
D|-----10p9------------5p4--0------------0----------------|
A|----------(12)------------------------------------------|
E|--------------------------------------------------------|
D|-----------------------------------7p5---------2h4p2p0--|
A|--10---------------5------------------------------------|
D|---------------------------------5---------0------------|

Back to Verse x2
Chorus

Ending


D|---------------------------------------------------11-12-11--5/7-4--|
A|------------------------------------------------10-----------7/9-5--|
E|--------------------------------------------------------------------|
D|------------4-2-2h4p2p0---12-11h12p11--14-12-11---------------------|
A|--------0-----------------------------------------------------------|
D|--0h2h4---5-------------0----------------------------------------0--|


     *Harmonic
D|--------12-----10---------8------7--|--7-8p7-7--5-7p5-5--3-5p3-3--2--|
A|------8-----------------------------|--8-----8--7-----7--5-----5--4--|
E|--(12)------12----12---10---10---9--|--------------------------------|
D|------------------------------------|--------------------------------|
A|------------------------------------|--------------------------------|
D|------------------------------------|--------------------------------|


D|------0--------0--------0--------0-----|------0------------0-----0-------0-----|
A|---------3--------1--------1--------1--|---------7--7h8p7-----------4/5-----7--|
E|---------------------------------------|---------------------------------------|
D|---------------------------------------|---------------------------------------|
A|---------------------------------------|---------------------------------------|
D|--/5--------3--------2--------1--------|--/7------------------7----------------|


                   *Harmonic
D|--2h4p2p0---0-----------|
A|--0-------4-------------|
E|------------------------|
D|------------0--------0--|
A|----------------(12)----|
D|--0---------------------|


 (...Harmonics...................)
D|--------------------------12---|
A|----------------12-----9-------|
E|-------------------12----------| x3
D|------7------12----------------|
A|--7-------7--------------------|
D|----9---9----------------------|


   Slow Down
 (...Harmonics...................)
D|-------------------------12----|
A|----------------12-------12----|
E|-------------------12----12----|  Tune the E up to F#
D|------7------12----------12----|
A|--7-------7--------------12----|
D|----9---9----------------12----|


Thank you for playing!
Suggest correction
comments
print report bad tab
guest
You may want to rate the tab now too:
select rating
Wanna post a correction for this tab? Suggest correction