Oops, an error
Loading. Please wait.

Cathartik Bass Tab

version 1
version 1

Whole song

Interactive

273 views 1 this week
no commentswrite comment
1 2 3 4 5
please rate
add to favorites
launch autoscroll
font size
0
reset
guitar tuner
Autoscroll
slow
fast
+/-
esc
set tempo
stop
Help us to improve Ultimate-Guitar.com Take our survey!
×
Author
Difficulty
novice
Artist: The Tea Party
Song: Cathartik
Tabbed by: Dan Cooper

Good song. My second tab and I'm pretty darn proud of it. It's quite accutare.Stuart does 

some improv stuff from time to time but this will get you through the song.

Intro/verse

G|---------------|
D|---------------|
A|---------------|
D|-0-578--0-578-7|

Post verse
                (twelves and fourteens)
G|----------------------------|
D|--------------12-14-12-14-12|
A|----------------------------|
D|-0-00-00-00-----------------|

Chorus

G|------------------------------|
D|--0---0--3---3----------------|
A|---------------1-1-11-00-00-3-|
D|-0--00--3--33-----------------|

Bild-up

G|-----------------|
D|-----------------|
A|-----------------|
D|-00-00-00-00-000-|

Breakdown

G|----------------|
D|----------------|
A|----------------|
D|-03-03-05-05323-|

Solo 2

G|--------------------------------|
D|--0---0-------------------------|
A|--------3-3-33--------0-1-0-----|
D|-0--00---------5-5-55-------532-|


Intro/verse x8
Post verse x1
Intro/verse x4
Chorus x2
Intro/verse x4
Post verse x1
Chorus x4
Build-up x4
Breakdown x4
Solo 2 x2
Chorus x3
Breakdown x3

Enjoy!
Suggest correction
Give kudos to tab author, rate the tab!
1 2 3 4 5
comments
print report bad tab
guest
You may want to rate the tab now too:
select rating
Please do not post tabs as comments. Select "correction" instead!