Oops, an error
Loading. Please wait.

Coming Home Tab

version 1
version 1

Intro

Whole song

Interactive

1,879 views 1 this week
no commentswrite comment
1 2 3 4 5
3 more votes to show rating
add to favorites
launch autoscroll
font size
0
reset
how to read this tab
guitar tuner
Autoscroll
slow
fast
+/-
esc
set tempo
stop
Help us to improve Ultimate-Guitar.com Take our survey!
×
Difficulty
Tuning
intermediate
D A D G B E
Album: Edges of Twilight
Artist: Tea Party
Song: Coming home

Correction to Intro by Logan Murray [logan@electricstorm.com]
Original tab by Guitarz@ix.netcom.com & neitzen@scs.Ryerson.CA

Riff 1 Acoustic guitar
---------------------------------------------------------------------|E
---------------------------------------------------------------------|B
-----0h2---/5---7----5----------------------2----0-------------------|G
--------------------------7-----0-----2---------------3----0----2----|D
---------------------------------------------------------------------|A
-0-------------------------------------------------------------------|D

---------------------------------------------------------------------|E
---------------------------------------------------------------------|B
---------------------0----2---0--------------------------------------|G
-----0----2----3------------------3----2----0--------0-----2----0----|D
-------------------------------------------------3-------------------|A
---------------------------------------------------------------------|D
Play above 4x

I find double-picking each string (on the upstroke and downstroke) wherever possible 
the best sound, especially when it hits the heavy riff immediately after the acoustic 
-L
Suggest correction
Give kudos to tab author, rate the tab!
1 2 3 4 5
comments
print report bad tab
guest
You may want to rate the tab now too:
select rating
Wanna post a correction for this tab? Suggest correction