Oops, an error
Loading. Please wait.

Coming Home Tab

version 1
version 1

Whole song

Interactive

5,787 views 15 this week
no commentswrite comment
1 2 3 4 5
2 more votes to show rating
add to favorites
launch autoscroll
font size
0
reset
how to read this tab
guitar tuner
Autoscroll
slow
fast
+/-
esc
set tempo
stop
Help us to improve Ultimate-Guitar.com Take our survey!
×
Author
Difficulty
Tuning
intermediate
C# G# C# F# A# D#
The Tea Party - Coming Home

Transcribed by DevilMann

Riff1  Acoustic Guitar  Play 4x
E------------------------------------------------------------|
B----------5-------------------------------------------------|
G----2h5/7--5p0---0-2p0-------------------0-2p0--------------|
D---------------3-------3p0-2-------0h2h3-------3p2p0--0h2p0-|
A-----------------------------------------------------3------|
D--0---------------------------------------------------------|


Riff2  Electric with distortion Play 3 1/2x
E--------------|--------------|
B-----------------------------|
G--5/7--5/7--5----------------|
D--5/7--5/7--5----5-32p0------|
A--3/5--3/5--3------------3---|
D-----------------------------|

Riff3  Acoustic Guitar Play 4x
E----0-0-0-0-0--------------0-------------------0-0-0-0-0-0-->
B----3-3-3-1-3---------3------------------------0-0-0-0-0-0-->
G----2-2-2-2-2----------0-----------0------2----2-2-2-2-2-2-->
D----0-0-0-0-0---0h3/5---5----0h2h3---0--3------3-3-3-3-3-3-->
A-----------------------------------------------x-x-x-x-x-x-->
D--0-----------------------------------------5--5-5-5-5-5-5-->


>----------------------|
>----------------------|
>-----2----2-2-2-2-2-2-|
>--0--3--0-3-3-3-3-3-3-|
>--0--x--0-x-x-x-x-x-x-|
>--0--3--0-0-0-0-0-0-0-|


Riff4 Acoustic Play 4x
E--0--/-0--/-0--/-0--|
B--3--/-5--/-6--/-8--|
G--2--/-4--/-5--/-7--|
D--0--/-0--/-0--/-0--|
A--------------------|
D--------------------|

Riff5 Electric with distortion Play 2x
E--------------------------------------------------------------|
B--------------------------------------------------------------|
G--7--9--5--4/54-2--------------7--9--5--4/54-2----------------|
D--------------------/9--5--7-----------------------/9--5--4---|
A--5--7--3--2/32-0--------------5--7--3--2/32-0----------------|
D--------------------/9--5--7-----------------------/9--5--4---|


Riff1 2x

Riff3 4x

Riff4 4x

Riff5 2x

Riff6 Play 3 1/2x
E-----------------|
B--6(8)r6---------|
G---------7(9)r7--|
D-----------------|
A-----------------|
D-----------------|

Riff2 3 1/2x

Solo
E--------------------------------------/3--------------------|
B-----5-6-5-------------------------------5--------/6-5-31---|
G--/7-------7--5/75--5/7-5--4--42--------2/42----------------|
D-----------------------------5--53--------------------------|
A------------------------------------------------------------|
D------------------------------------------------------------|


>-----------------------------------------/3--------------------|
>--------------------------------------------5--------/6-5-31---|
>--10(12)-10-97--75-5h7h9-7p5--4--42--------2/42----------------|
>--------------------------------5--53--------------------------|
>---------------------------------------------------------------|
>---------------------------------------------------------------|


>--------12-108-------8-5h8-53----5h7------/3----------------------|
>--13(15)---------8(10)-----------8****5--------5--------/6-5-31---|
>----------------------------------------2-------2/42--------------|
>------------------------------------------------------------------|
>------------------------------------------------------------------|
>------------------------------------------------------------------|


>--------12-108--13(15)-13-12h13p1210----5h7-----/3---------------|
>--10(12)--------------------------------8****5-------5-------1---|
>-----------------------------------------------2-----2/42--2-----|
>-------------------------------------------------------------0---|
>-----------------------------------------------------------------|
>-----------------------------------------------------------------|

Riff4 4x

Riff5 4x

cant remember this acoustic bit

Riff1 4x slow near end
Suggest correction
Give kudos to tab author, rate the tab!
1 2 3 4 5
comments
print report bad tab
guest
You may want to rate the tab now too:
select rating
Wanna post a correction for this tab? Suggest correction