Oops, an error
Loading. Please wait.

Coming Home Tab

version 2
version 2

Whole song

Interactive

1,449 views 1 this week
1 commentread comment
1 2 3 4 5
please rate
add to favorites
launch autoscroll
font size
0
reset
how to read this tab
guitar tuner
Autoscroll
slow
fast
+/-
esc
set tempo
stop
Help us to improve Ultimate-Guitar.com Take our survey!
×
Song: Coming Home
Artist: The Tea Party
Album: The Edges of Twilight (EMI, 1995)
Tabbed by: Taylor Dekking (t_dokk@hotmail.com)


Tuning:  low to high   D A D F A E


Intro

E|-----|--------0----------------------|--------------------------------|
A|-----|--0h3/5---3p0------0-----------|----------0---------------------|
F|-----|.--------------0h2---2---------|--------2---2------------------.| x4
D|-----|.----------------------3p0--2--|--0h2h3-------3p2p0---0h2p0----.|
A|-----|-------------------------------|--------------------3-----------|
D|--0--|-------------------------------|-----------------------------0--|



Bridge

E|---0---0---0-----------------|
A|---0---0---0-----------------|
F|--/4--/4---2----2p0----------| x3
D|---0---0---0--------2p0------|
A|--/5--/5---3------------3p0--|
D|---0---0---0-----------------|


E|---0---0---0--|
A|---0---0---0--|
F|--/4--/4---2--|
D|---0---0---0--|
A|--/5--/5---3--|
D|---0---0---0--|



Verse

E|-----0--0-0-0-0------0---0-----0--------|-----0--0-0-0--0-----0-0----0--|
A|-----5--5-5-3-5----------------------0--|-----0--0-0-0--0-----0-0----0--|
F|-----4--4-4-4-4--0h2---0----------------|-----4--4-4-4--2~----2/4----4--| x4
D|--0--0--0-0-0-0------------0h2-----2----|-----5--5-5-5--0---0-0-0----0--|
A|--0------------------------------3------|-----0--0-0-0--3~--0-3/5----5--|
D|--0-------------------------------------|--5--5--5-5-5--0---0-0-0--0-0--|



Pre Chorus

E|--0---0---0---0---|
A|--5---7---8---10--|
F|--4---6---7---9---| x4
D|--0---0---0---0---|
A|--0---0---0---0---|
D|--0---0---0---0---|



Chorus

E|--10--12--8--7/8\7--5---7--3--5--|--10--12--8--7/8\7--5---7--3--2--|
A|--0---0---0--0---0--0---0--0--0--|--0---0---0--0---0--0---0--0--0--|
F|--9---11--7--6/7\6--4---6--2--4--|--9---11--7--6/7\6--4---6--2--1--| x4
D|--0---0---0--0---0--0---0--0--0--|--0---0---0--0---0--0---0--0--0--|
A|--0---0---0--0---0--0---0--0--0--|--0---0---0--0---0--0---0--0--0--|
D|--0---0---0--0---0--0---0--0--0--|--0---0---0--0---0--0---0--0--0--|


Back to intro x2
Verse
Pre Chorus
Chorus



Interlude

  Lead
E|-------------------|    |----------|
A|--8b10r8----5b7r5--|    |--8b10r8--|
F|-------------------| x3 |----------|
D|-------------------|    |----------|
A|-------------------|    |----------|
D|-------------------|    |----------|

  Chords
E|--5----5----0---x--|    |--5----5--|
A|--5----8----0---5--|    |--5----8--|
F|--5----5----2---4--| x3 |--5----5--| Chords go to the bridge
D|--5----5----0---0--|    |--5----5--|
A|--5----5----3---5--|    |--5----5--|
D|--5----5----0---0--|    |--5----5--|


  Lead plays this over the bridge
E|------8h10-8h10--8~--|
A|--8h10~~~~~~~~~~~~~--|
F|---------------------| x4
D|---------------------|
A|---------------------|
D|---------------------|


Solo

E|-------0------------------------------3p0---------------------|
A|--3/5----8-7-5-3/5\3--3/5\3----2--2p0-----5p3p0---7b8r7--5\3--|
F|-------------------------------2------------------------------|
D|--------------------------------------------------------------|
A|--------------------------------------------------------------|
D|--------------------------------------------------------------|


E|--------------------------------------3p0---------------------|
A|--/10-8-7\5---5--3---5h7p5\3---2--2p0-----5p3p0---7b8r7--5\3--|
F|-------------------------------2------------------------------|
D|--------------------------------------------------------------|
A|--------------------------------------------------------------|
D|--------------------------------------------------------------|

                                                  *Harmonic
E|--/10-12-10\8--------8-------------------------(12)------3p0--------------------|
A|---------------10/12----12h15p12-10---10-12/14-----14\12-----5p3p0--7b8r8--5\3--|
F|--------------------------------------------------------------------------------|
D|--------------------------------------------------------------------------------|
A|--------------------------------------------------------------------------------|
D|--------------------------------------------------------------------------------|

                                               *Harmonic           gradual slide 
E|--/10-12-10\8--15-13-12h13p12-10------------(12)------3p0--------------------|
A|-----------------------------------10-12/14-----14\12-----5p3p0--3/5---------|
F|-----------------------------------------------------------------------------|
D|-----------------------------------------------------------------------------|
A|-----------------------------------------------------------------------------|
D|-----------------------------------------------------------------------------|


Back to Pre Chorus
Chorus
Chorus again but fades to acoustic


Ending

E|-----|--------0----------------------|--------------------------------|
A|-----|--0h3/5---3p0------0-----------|----------0---------------------|
F|-----|.--------------0h2---2---------|--------2---2------------------.| x3
D|-----|.----------------------3p0--2--|--0h2h3-------3p2p0---0h2p0----.|
A|-----|-------------------------------|--------------------3-----------|
D|--0--|-------------------------------|-----------------------------0--|


  Slow down
E|--------0----------------------|----------------------------0----|
A|--0h3/5---3p0------0-----------|----------0-----------------0----|
F|---------------0-2---2---------|--------2---2---------------2/4--|
D|-----------------------3-0--2--|--0-2-3-------3-2-0---0-2---0----|
A|-------------------------------|--------------------3-------3/5--|
D|-------------------------------|----------------------------0----|


Thank you for Playing!
Suggest correction What's this?
You can suggest a correction to this tab. Community and Mods will review your correction and vote to approve or reject it.
comments
We did not receive enough feedback on this tab! Please rate:
print report bad tab
1 2 3 4 5
1 comment total.
0 reply
nyuzzy 16 wrote on May 1 2014, 12:03 am

Great job, thanks so much for sharing!!

I want to post or [tab]
guest
You may want to rate the tab now too:
select rating
Please do not post tabs as comments. Select "correction" instead!