Oops, an error
Loading. Please wait.

Fire In The Head Tab

version 2
version 2

Whole song

Interactive

3,128 views 6 this week
no commentswrite comment
1 2 3 4 5
please rate
add to favorites
launch autoscroll
font size
0
reset
how to read this tab
guitar tuner
Tab Pro tools
  • play this tab
  • loop segment
  • change instrument
  • show fretboard
  • metronome
×
Best way to learn
"Fire In The Head"
Autoscroll
slow
fast
+/-
esc
set tempo
stop
Tuning
D |---
A |---
F#|---
D |---
A |---
D |---


G1                          silent      knowing     always   in
|---------------------|---------------------------------------------|
|---------------------|---------------------------------------------|
|---------------------|---------------------------------------------|
|------0-----0-----0--|------0-----0-----0-----0-----0-----0--------|
|----5-----5---3h5----|----5-----5-----5-----5-----5-----5----6/9---|
|--0-----0------------|--0-----0-----0-----0-----0-----0------------|

   time                                    See         how this love stays di-
|---------------------------------------|--------------------------------------|
|---------------------------------------|--------------------------------------|
|---------------------------------------|--------------------------------------|
|------0-----0-----0-----0-----0-----0--|------0-----0----0----0----0----0-----|
|----5-----5---3h5-----5-----5---3h5----|----3-----3----3----6----6----3----6--|
|--0-----0-----------0-----0------------|--0-----0-----------------------------|

  -vine                                    See         how this love stays di-
|---------------------------------------|--------------------------------------|
|---------------------------------------|--------------------------------------|
|---------------------------------------|--------------------------------------|
|------0-----0-----0-----0-----0-----0--|------0-----0----0----0----0----0-----|
|----5-----5---3h5-----5-----5---3h5----|----3-----3----3----6----6----3----6--|
|--0-----0-----------0-----0------------|--0-----0-----------------------------|

  -vine
|---------------------------------------|
|---------------------------------------|
|---------------------------------------|
|------0-----0-----0-----0-----0-----0~~| add distortion (and rock!)
|----5-----5---3h5-----5-----5---3h5----|
|--0-----0-----------0-----0------------|

G2
|------------------|----------------------------------|---------|
|------------------|----------------------------------|---------|
|--8--8\----8--8\--|--9-8--7-8--9-8--7-8--9-8--7-8-9--|--8--8\--|
|--7--7\----7--7\--|--8-7--6-7--8-7--6-7--8-7--6-7-8--|--7--7\--|
|------------------|----------------------------------|---------|
|------------------|----------------------------------|---------|

|------------------------------------|--------|
|---------------6--8--6--------------|--------|
|--6--6---6--8--6--6--6--8--6--8--6--|--8--8--|X2
|--6--6---6--6-----------6--6--6--6--|--7--7--|
|------------------------------------|--------|
|------------------------------------|--------|

G1
|----------------------------------|--------------------------------------|
|----------------------------------|--------------------------------------|
|--8--8-------------------8--------|--9-8--7-8--9-8--7-8--9-8--7-8--9-----|
|--7--7-------x-x---x-x---7--------|--8-7--6-7--8-7--6-7--8-7--6-7--8-----|
|--0--0-------x-x---x-x---0--------|--------------------------------------|
|--0--0---9---9-9---9-9---0---9-9--|--------------------------------------|

          A.H.--------|      ---------------------------------------------|

|----------------------------------|--------------------------------------|
|----------------------------------|---------------6--8--6----------------|
|--8--8-------------------8--------|--6--6---6--8--6--6--6--8--6--8--6----|
|--7--7-------x-x---x-x---7--------|--6--6---6--6--6--6--6--6--6--6--6----|
|--0--0-------x-x---x-x---0--------|--------------------------------------|
|--0--0---9---9-9---9-9---0---9-9--|--------------------------------------|
          A.H.--------|      ---------------------------------------------|


                                     This   is the love that stays  di-
|----------------------------------|--------------------------------------|
|----------------------------------|--------------------------------------|
|--8--8-------------------8--------|--6--6---6--8--9--8--6--8--9--8--6----|
|--7--7-------x-x---x-x---7--------|--6--6---6--6--6--6--6--6--6--6--6----|
|--0--0-------x-x---x-x---0--------|--------------------------------------|
|--0--0---9---9-9---9-9---0---9-9--|--------------------------------------|
          A.H.--------|      ---------------------------------------------|
  -vine                              X4
|------------------------------|------0-2-0-------0---0---0---0---0----|
|------------------------------|----4-------4---4---5---7---9---0------|
|--8--8------------------------|--3-----------3------------------------|
|--7--7-------x-x---x-x--------|---------------------------------------|
|--0--0-------x-x---x-x--------|---------------------------------------|
|--0--0---9---9-9---9-9---12\--|---------------------------------------|
          A.H.---------------------------------------------------------|
G2
|-------------------------|
|-----7---9---10---12-----|
|-----7---8---10---12-----|X4
|-------------------------|
|-------------------------|
|-------------------------|

|----------------------------------|-----------------------------------|
|----------------------------------|-----------------------------------|
|--8--8-------------------8--------|--9-8--7-8--9-8--7-8--9-8--7-8--9--|
|--7--7---x---x-x---x-x---7---x-x--|--8-7--6-7--8-7--6-7--8-7--6-7--8--|
|--0--0---x---x-x---x-x---0---x-x--|-----------------------------------|
|--0--0---x---x-x---x-x---0---x-x--|-----------------------------------|

|----------------------------------|-------------------------------------|
|----------------------------------|-------------------------------------|
|--8--8-------------------8--------|-------------------------------------|
|--7--7---x---x-x---x-x---7---x-x--|--6--6-------6--6-/-12-----12--12-\--|
|--0--0---x---x-x---x-x---0---x-x--|--6--6-------6--6-/-12-----12--12-\--|
|--0--0---x---x-x---x-x---0---x-x--|--6--6-------6--6-/-12-----12--12-\--|

|----0--0----0--0----0--0----0--0----0--0----0--0----0--0----0--0----|
|----0--0----0--0----0--0----0--0----0--0----0--0----0--0----0--0----|
|----0--0----0--0----0--0----0--0----0--0----0--0----0--0----0--0----|
|----1--0----1--3----1--0----1--3----4--3----4--3----1--0----1--4----|
|----0--0----0--0----0--0----0--0----0--0----0--0----0--0----0--0----|
|----1--0----1--3----1--0----1--3----4--3----4--3----1--0----1--4----|

|----5---7---8---10---12---14---15---17---16--|--0--0--|
|----0---0---0---0----0----0----0----0----0---|--0--0--|
|----0---0---0---0----0----0----0----0----0---|--0--0--|
|----5---7---8---10---12---14---15---17---16--|--1--4--|
|----0---0---0---0----0----0----0----0----0---|--0--0--|
|----0---0---0---0----0----0----0----0----0---|--1--4--|

G2
|--------------------------------------------------------------------|
|--------------------------------------------------------------------|
|--------------------------------------------------------------------|
|----1--0----1--3----1--0----1--3----4--3----4--3----1--0----1--4----|
|----1--0----1--3----1--0----1--3----4--3----4--3----1--0----1--4----|
|----1--0----1--3----1--0----1--3----4--3----4--3----1--0----1--4----|

|----0-------0-------------------------|
|----0-------0-------------------------|
|----0-------0-------------------------|
|----5-------7---------1--0----1--4----|
|----0-------0---------1--0----1--4----|
|----5-------7---------1--0----1--4----|

G1
|--11-------12--11----14--12p11--15--14p12--14--12p11--12--12----11---------------|
|-----13p12--------13-----------------------------------------13----13p12--13-----|
|---------------------------------------------------------------------------------|
|---------------------------------------------------------------------------------|
|---------------------------------------------------------------------------------|
|---------------------------------------------------------------------------------|

|--0--0--0---0---0---0---0---7--8--10--12--14--15--14--12--11--|
|--0--0--0---0---0---0---0---0--0--0---0---0---0---0---0---0---|
|--0--0--0---0---0---0---0---0--0--0---0---0---0---0---0---0---|
|--7--8--11--12--14--15--17--7--8--10--12--14--15--14--12--11--|
|--0--0--0---0---0---0---0---0--0--0---0---0---0---0---0---0---|
|--7--8--11--12--14--15--17--0--0--0---0---0---0---0---0---0---|

G2
Interlude (left speaker keyboard part)         X4
|----0----0----0----0----0----0----0----0-----|--------------|
|----0----0----0----0----0----0----0----0-----|--------------|
|----0----0----0----0----0----0----0----0-----|--------------|
|----7----8----11---8----12---11---8----11----|--7--7--7--7--|
|----0----0----0----0----0----0----0----0-----|--7--7--7--7--|
|----7----8----11---8----12---11---8----11----|--7--7--7--7--|
comments
We did not receive enough feedback on this tab! Please rate:
print report bad tab
1 2 3 4 5
I want to post or [tab]
guest
You may want to rate the tab now too:
select rating
Please do not post tabs as comments. Select "correction" instead!