Oops, an error
Loading. Please wait.

Paint It Black Tab

version 1
version 1

Intro

2,545 views 1 this week
4 commentsread comments
1 2 3 4 5
please rate
add to favorites
launch autoscroll
font size
0
reset
how to read this tab
guitar tuner
Autoscroll
slow
fast
+/-
esc
set tempo
stop
Help us to improve Ultimate-Guitar.com Take our survey!
×
Author
Difficulty
novice
e|-----------------------------|
b|--5-7-8-10-8-7-5-5-4-5-7-5-4-|
g|-----------------------------|
d|-----------------------------|
a|-----------------------------|
e|-----------------------------|


e|----------------------------------|
b|-5-7-8-10-8-7-5-5/7-7-7\4-5-7-5-4-|
g|----------------------------------|
d|----------------------------------|
a|----------------------------------|
e|----------------------------------|


 this is my frist tab.it took me like 3 minutes.

                    HELLAS!
Suggest correction
Give kudos to tab author, rate the tab!
1 2 3 4 5
comments
print report bad tab
4 comments total. Showing first comments.
0 reply
fenderorgibson? 10 wrote on December 8 2007, 02:11 am

ive always loved this intro your spot on too! thanks man

0 reply
mikeywoffle 10 wrote on May 28 2008, 02:50 am

yeah. its pretty cool..

0 reply
geetarguy1313 10 wrote on November 8 2008, 09:06 pm

i agree, good job, but add a 0 on e tring, not E, right after each one, like this

e-----0---0---0
B---5---7---8--

guest
You may want to rate the tab now too:
select rating
Please do not post tabs as comments. Select "correction" instead!