Oops, an error
Loading. Please wait.

Requiem Tab

version 1
version 1

Whole song

1,988 views 6 this week
2 commentsread comments
1 2 3 4 5
please rate
add to favorites
launch autoscroll
font size
0
reset
how to read this tab
guitar tuner
Autoscroll
slow
fast
+/-
esc
set tempo
stop
Help us to improve Ultimate-Guitar.com Take our survey!
×
Requiem

verse
|--0-------------0--0--------0----0--0--0-------------0--0--0--0--------0----0-0--|
|--0--------0----0--0------0------0--0--0--------0----0--0--0--0------0------0-0--|
|--0------0------4--0--0h2-----0--5--2--0------0------8--6--8--9--7h9-----7--0-0--|
|--3--0h2-----0--2--3-------------0--0--3--0h2-----0--7--7--7--8-------------7-0--|
|--0-------------4--0-------------0--0--0-------------0--0--0--0-------------0-0--|
|--0-------------0--3-------------0--0--0-------------7--7--7--8-------------0-0--|

Chorus                                                 Bridge         End
   Say it comes… X2                   change…fate   it passes…   this requiem…
|--0---0---0---------------------|--0---0---0---0--|--0-0-0-0--|--0--0--|
|--0---0---0---------------------|--0---0---0---0--|--0-4-5-4--|--5--0--|
|--9---7---0---4/7---7/9----9----|--9---7---4---6--|--6-6-6-6--|--4--2--|
|--8---8---7---7/10--10/12--12---|--8---9---3---7--|--5-5-5-5--|--0--0--|
|--0---0---0---------------------|--0---0---0---0--|--0-0-0-0--|--5--0--|
|--8---8---0---------------------|--8---8---3---7--|--5-5-5-5--|--0--5--|

Tuning

E|---
B|---
G|---
E|---
B|---
E|---
Suggest correction
Give kudos to tab author, rate the tab!
1 2 3 4 5
comments
print report bad tab
2 comments total.
0 reply
withoutanyname 226 wrote on May 3 2013, 01:28 pm

Almost perfect, only one chord seems out of place I think, it's the first and second chords here, I think instead of:
-0--0--0-------------0--0--0--0--------0----0-0--|
-0--0--0--------0----0--0--0--0------0------0-0--|
-5--2--0------0------8--6--8--9--7h9-----7--0-0--|
-0--0--3--0h2-----0--7--7--7--8-------------7-0--|
-0--0--0-------------0--0--0--0-------------0-0--|
-0--0--0-------------7--7--7--8-------------0-0--|

It should be:
-0--0--0-------------0--0--0--0--------0----0-0--|
-0--0--0--------0----0--0--0--0------0------0-0--|
-5--0--0------0------8--6--8--9--7h9-----7--0-0--|
-3--3--3--0h2-----0--7--7--7--8-------------7-0--|
-1--1--0-------------0--0--0--0-------------0-0--|
-------0-------------7--7--7--8-------------0-0--|

0 reply
withoutanyname 226 wrote on May 3 2013, 01:31 pm


Excellent tab, though I think the first two chords here are wrong:
...-0--0--0-------------0--0--0--0--------0----0-0--|
...-0--0--0--------0----0--0--0--0------0------0-0--|
...-5--2--0------0------8--6--8--9--7h9-----7--0-0--|
...-0--0--3--0h2-----0--7--7--7--8-------------7-0--|
...-0--0--0-------------0--0--0--0-------------0-0--|
...-0--0--0-------------7--7--7--8-------------0-0--|

I think it should be more:
...-0--0--0-------------0--0--0--0--------0----0-0--|
...-0--0--0--------0----0--0--0--0------0------0-0--|
...-5--0--0------0------8--6--8--9--7h9-----7--0-0--|
...-3--3--3--0h2-----0--7--7--7--8-------------7-0--|
...-1--1--0-------------0--0--0--0-------------0-0--|
...-------0-------------7--7--7--8-------------0-0--|

Thanks!

guest
You may want to rate the tab now too:
select rating
Please do not post tabs as comments. Select "correction" instead!