Oops, an error
Loading. Please wait.

Writing On The Wall Bass Tab

533 views 3 this week
3 commentsread comments
1 2 3 4 5
please rate
add to favorites
launch autoscroll
font size
0
reset
guitar tuner
Tab Pro tools
  • play this tab
  • loop segment
  • change instrument
  • show fretboard
  • metronome
×
Best way to learn
"Writing On The Wall"
Autoscroll
slow
fast
+/-
esc
set tempo
stop
Contributor
Paskal Fournier, Lachute .QC.CA
(Pasko)

Legende
/ : slide
p : pull off

Tunning : DADG (standard drop D)

Intro Guitar 2 fois
Intro Bass

|-----------------------------------------------------|
|-----------------------------------------------------|
|---------3p5---------------3p5-5---------------------|
|---0--3-5-----5-3-0-0-3-5--------5-3-----------------|

Verse 

|-----------------------------------------------------|
|-----------------------------------------------------|
|-------3-------3-3-----------------------------------|
|-0-3-5---0-3-5-----5-3-------------------------------|

Chorus 

|-----------------------------------------------------|
|-----------------------------------------------------|
|-----------------------------------------------------|
|--8888888888888-10-10-10--0-0-0-0-0-0-0-0------------|

|-----------------------------------------------------|
|-----------------------------------------------------|
|-----------------------------------------------------|
|--8888888888888-0-5-0-5-0-5-0-5-0-5-5----------------|

Bridge 1

|-------------------------------------------------------------------|
|----------5------------------5------------------5------------------|
|----2-3-5---3-2-3-2----2-3-5---3-2-3-2----2-3-5---3-2-3-2/5--------|
|--5-----------------5------------------5---------------------------|

Bridge 2

|--------------------------------------------------------------------|
|--------3p5-------------3p5-5-----------3p5-------------3p5-5-------|
|--0-3-5-----3-5-0-0-3-5-------3-5-0-3-5-----3-5-0-0-3-5-------3-5---|
|--------------------------------------------------------------------|


that's the basic line of baseline feel free to put addition
comments
We did not receive enough feedback on this tab! Please rate:
print report bad tab
1 2 3 4 5
3 comments total.
0 reply
Norgz94 wrote on December 20 2012, 07:15 pm

It's missing the bass riffs between the chorus and verse.

0 reply
Pale_Pilgrim wrote on September 24 2013, 08:17 pm

The "intro" is actually also the chorus line, and the part referred to as "chorus" in the tab is the pre-chorus. Other than that, great tab.

0 reply
Pale_Pilgrim wrote on February 8 2014, 05:05 am

Here's a re-working / detailed write-out of this tab:

Tunning : DADG (Drop D)
h = hammer-on
/ = slide

***Guitar plays 2 measures, then...***

Intro / Chorus (x2)
|-----------------------------------|
|-----------------------------------|
|----------3h5--------------3h5-----|
|---0--3-5-----5-3--0-0-3-5-----5-3-|

Verse (x4)
|-----------------------|
|-----------------------|
|-------3-------3-3-----|
|-0-3-5---0-3-5-----5-3-|

Repeat Chorus (x4)

Repeat Verse (x4)

Pre-chorus
|-----------------------------------------|
|-----------------------------------------|
|-----------------------------------------|
|-8888888888888-10-10-10--0-0-0-0-0-0-0-0-|

|-------------------------------------|
|-------------------------------------|
|-------------------------------------|
|--8888888888888-0-5-0-5-0-5-0-5-0-55-|

Repeat Chorus (x4)

Repeat Verse (x4)

Repeat Pre-chorus

Repeat Chorus (x4)

Bridge
|------------------------------------------------------------|
|-------------5------------------5------------------5--------|
|-----2--3--5---3232-----2--3--5---3232-----2--3--5---3232/5-|
|--5------------------5------------------5-------------------|

Bridge continued (x2)
|----------------------------------|
|---------3h5--------------3h5-----|
|--0--3-5-----3-5--0-0-3-5-----3-5-|
|----------------------------------|

***4 measures without bass***

Repeat Chorus (x4), add a brief open D at the end

I want to post or [tab]
guest
You may want to rate the tab now too:
select rating
Please do not post tabs as comments. Select "correction" instead!