Oops, an error
Loading. Please wait.

Death By Plane tab

version 2
version 2

Whole song

2,414 views 6 this week
1 commentread comment
1 2 3 4 5
1 last vote to show rating
add to favorites
×
Save as Personal and add changes to this tab that will be seen only by you. Learn more ›
×
You can save this tab as Personal to edit and correct it or add notes. All changes will be seen only by you. Learn more »
launch autoscroll
font size
0
reset
how to read this tab
guitar tuner
edit
Autoscroll
slow
fast
+/-
esc
set tempo
stop
Author
Difficulty
-------------------------------------------------------------------------------
                             Team Sleep-Death By Plane
-------------------------------------------------------------------------------
Tabbed by:ThePianist (El Gabe)
Email:Ibanez_2009GW@hotmail.com

Tuning: i think this is in E flat, but the song is kinda warped if you know what i mean, 
the intonation isnt gonna be that great.

im only tabbing the guitar part, not the electronic tones at the beginning.

e|---------------------------------------------------------------------------|
B|---------------------------------------------------------------------------|
G|--------------------------0-----(emphasize the 4 & open difference)--------|
D|---5---5-5-x--5---5-5-x---4------------------------------------------------|
A|---3---3-3-x--2---2-2-x---2------------------------------------------------|
E|---3---3-3-x--2---2-2-x---0------------------------------------------------|
next is
e|---------------------------------------------------------------------------|
B|---------------------------------------------------------------------------|
G|---------(play around with that chord for the measure)---------------------|
D|---7-------------------------------------(then repeat the stuff above)-----|
A|---5-----------------------------------------------------------------------|
E|---5-----------------------------------------------------------------------|

wow.how difficult. playing this song with "feel" is the most important part...

            
            
Suggest correction
Creating personal tab
Creating personal tab
You can edit any tab online and save it as your Personal.

You can edit, replace or remove any tab part or add personal notes – all changes will be seen only by you.

Personal tabs can be accessed anytime from any device, even offline.
Learn more »
Give kudos to tab author, rate the tab!
1 2 3 4 5
comments
print report bad tab
1 comment total.
0 reply
SineRider 162 Sep 01, 2009 11:10 AM

Very nice tab, although I'd like to suggest some adjustments to some of the chords.

Instead of:
e|-----------
B|-----------
G|-----------
D|-----5-----
A|-----2-----
E|-----2-----

Play:
e|-----------
B|-----------
G|-----------
D|-----5-----
A|-----2-----
E|-----3-----

Also the:
e|------
B|------
G|------
D|---7--
A|---5--
E|---5--

Sounds better as:
e|-------
B|---0---
G|---2---
D|---2---
A|---0---
E|-------

guest
You may want to rate the tab now too:
select rating
Wanna post a correction for this tab? Suggest correction