Oops, an error
Loading. Please wait.

Call Me Mellow Bass Tab

212 views 1 this week
no commentswrite comment
1 2 3 4 5
please rate
add to favorites
launch autoscroll
font size
0
reset
guitar tuner
Autoscroll
slow
fast
+/-
esc
set tempo
stop
Help us to improve Ultimate-Guitar.com Take our survey!
×
-------------------------------------------------------------------------------
                             Call me Mellow- Tears for Fears
-------------------------------------------------------------------------------
Tabbed by: Mike Kunz
E-mail: rmjk21@embarqmail.com

Tuning: Standard

G|----------------|----------------|---------------|----------------|
D|----------------|----------------|---------------|----------------|
A|----------------|----------------|---------------|----------------|
E|----------------|----------------|---------------|----------------|
  fill the sky, with love  ( guitars )

G|----------------|----------------|---------------|--------------|
D|----------------|----------------|---------------|--------------|
A|----------------|----------------|-9-11-12-12-12-|9-11-12-12-12-|
E|----------------|----------------|---------------|--------------|
  last time i saw her


G|--------------------|----------------------|---------------------|
D|-7---9---7---9---7--|-9---7-----------4-7-4|---------------------|
A|---7---7---7---7---7|---7---7-5-7-5-7------|-5-7-5-7-5-7-5-7-5-7-|
E|--------------------|----------------------|---------------------|
  but then she knows its like a curse 

G|-------------------|---------------------|--------------|
D|----4-7-4----------|---------------------|--------------|
A|5-7-------5-7-5-7-5|-7-5-7-9-11-12-12-12-|9-11-12-12-12-|
E|-------------------|---------------------|--------------|
  on coney island

G|--------------------|-----------------------|----------------------|
D|-7---9---7---9---7--|-9---7-----------4-7-4-|----------------------|
A|---7---7---7---7---7|---7---7-5-7-5-7-------|5-7-5-7-9-11-12-12-12-|
E|--------------------|-----------------------|----------------------|
  but then she knows its like a curse

G|----------------|-------------------------|------------------------|
D|----------------|-------------------------|------------------------|
A|-9-11-12-12-12-9|-11-12-12-12-7-5-4-2-9-11|-12-12-12-9-11-12-12-12-|
E|----------------|-------------------------|------------------------|
  she break new ground for us
  
G|---------------|---------------------------|--------------------------|
D|---------------|----------------7---------9|---------7---------9------|
A|-9-11-12-12-12-|7-5-4-2-7-5-4-2------7-----|----7---------7---------7-|
E|---------------|---------------------------|--------------------------|
  driving me like a truck

G|-----------------------------------------|
D|-7---9---7-------9---7---9---7---9---7---|
A|---7---7---7-5-7---7---7---7---7---7---7-|
E|-----------------------------------------|
  to unify my universe

G|---------------------|--------------------------------------------|
D|---------4-7-4-------|--4-7-4---------4-7-4---------4-7-4---------|
A|-5-7-5-7-------5-7-5-|7-------5-7-5-7-------5-7-5-7-------5-7-5-7-|
E|---------------------|--------------------------------------------|
  mellow

G|--------------------|--------------|----------------------|
D|4-7-4---------4-7-4-|--------4-7-4-|--------4-7-4---------|
A| -----5-7-5-7-------|5-7-5-7-------|5-7-5-7-------5-7-5-7-|
E|--------------------|--------------|----------------------|
  ( repeats and fades )
Suggest correction
Give kudos to tab author, rate the tab!
1 2 3 4 5
comments
print report bad tab
guest
You may want to rate the tab now too:
select rating
Please do not post tabs as comments. Select "correction" instead!