Oops, an error
Loading. Please wait.

Everybody Wants To Rule The World Tab

version 1
version 1

Whole song

Interactive

69,734 views 114 this week
no commentswrite comment
1 2 3 4 5
accurate
x 4
add to favorites
launch autoscroll
font size
0
reset
how to read this tab
guitar tuner
Autoscroll
slow
fast
+/-
esc
set tempo
stop
Help us to improve Ultimate-Guitar.com Take our survey!
×
Author
----------------------------------------------------------------------------
        EVERYBODYS WANTS TO RULE THE WORLD - Tears For Fears
----------------------------------------------------------------------------
Tabbed by: Jesse Benedick
Email: JBMetal311@Yahoo.com

Tuning: Standard

e|-22-19--------------|-----------------------|----------------------------|
B|-------19-22--------|-------10----12----10--|--2----0--------------------|
G|-------------19-----|--4/11----11----11-----|--2----0--------------------|
D|--------------------|-----------------------|--0----0--------------------|
A|--------------------|-----------------------|----------------------------|
E|--------------------|-----------------------|-----------33-33-33-33-33---|
                        Repeat 8x              Main Chords(pm...........)
e|--0------2------3------2------0----2----3----5---------------------------|
B|--0------2------3------2------0----2----3----5---2----0------------------|
G|--0------2------4------2------0----2----4----6---2----0------------------|
D|--2------4------5------4------2----4----5----7---0----0---00---00---00---|
A|--2------4------5------4------2----4----5----7---------------------------|
E|--0------2------3------2------0----2----3----5---------------------------|
  Chorus
e|--3-------5---5--|-----10--9-7---------------|---------------------------|
B|--3-------5---5--|--10---------10--7-8-10----|---------------------------|
G|--4-------7---6--|------------------------7--|-------7-7-7-7-7-7-7-7-7-7-|
D|--5-------7---7--|---------------------------|--9-7~-9-7-9-7-9-7-9-7-9-7-|
A|--5-------5---7--|---------------------------|---------------------------|
E|--3-----------5--|---------------------------|---------------------------|
Repeat 3x           Breakdown Solo(Repeat 3x)  End with this
e|-----------------------------------10-10--10\7-7-7\5-5-5/7------5-7-----5|
B|-7777----------7777-------------7--10-10--10\7-7-7\5-5-5/7-5-5--5-7-5-5-5|
G|-7777-7-7-7-7--7777-7-7-7-----7-7--------------------------4-6------4-6--|
D|------9-7-9-7-------9-7-9-7-9--------------------------------------------|
A|-------------------------------------------------------------------------|
E|-------------------------------------------------------------------------|
First Solo                  pm.....
e|-7-----------------------------------|-----------------------------------|
B|-7--7-77-5--7-77-5--77-5--77-5-77-5--|---7-7--7--7-7--7--7-7--7--8--10---|
G|----7-77-4--7-77-4--77-4--77-4-77-4--|---7-7--7--7-7--7--7-7--7--9--11---|
D|-------------------------------------|-----------------------------------|
A|-------------------------------------|-----------------------------------|
E|-------------------------------------|-----------------------------------|
Solo Continued                          Lead part over last pre-chorus
e|-----------------------|------------------|--10--------------------------|
B|-------15----17----15--|--b8r7------------|-----12-10--------------------|
G|-11/16----16----16-----|---------7-9--7~--|-----------11-9-11~--11\2-----|
D|-----------------------|------------------|------------------------------|
A|-----------------------|------------------|------------------------------|
E|-----------------------|------------------|------------------------------|
Repeat 8x                 Lead mini solo     Solo(with distortion)
e|-------------------------------------------------------------------------|
B|------------------------------------7~~----------7/10~-10/15~-15/17~-----|
G|-----------------------------------------/7------------------------------|
D|--/9--7-9--7-9--7~--9h10r9r7-9---7b----------5-7-------------------------|
A|-------------------------------9-----------------------------------------|
E|-------------------------------------------------------------------------|

e|-------------------------------11r10-------------------------------------|
B|-----------------------------8--------8~----8----------------------7-----|
G|-7b8r7p5----9b10r9----7~---7------------------7----------------------7---|
D|---------7----------7----7----------------5-----5-5/7~---------7---------|
A|--------------------------------------------------------5--5-5---5-------|
E|-------------------------------------------------------------------------|
                                                             pm......
e|-------------------------------------------------------------------------|
B|-10-7------------------7~-8~-10~-----------------------------------------|
G|------9-7~-------9-7-----------------------------------------------------|
D|-----------7--7~-----7---------------------------------------------------|
A|-------------------------------------------------------------------------|
E|-------------------------------------------------------------------------|

| /  slide up
| \  slide down
| h  hammer-on
| p  pull-off
| ~  vibrato
| +  harmonic
| x  Mute note
============================================================================
Suggest correction
What's this?
You can suggest a correction to this tab. Community and Mods will review your correction and vote to approve or reject it.
comments
print report bad tab
guest
You may want to rate the tab now too:
select rating
Please do not post tabs as comments. Select "correction" instead!