Oops, an error
Loading. Please wait.

Head Over Heels bass

version 4
version 4

Whole song

Interactive

1,856 views 15 this week
1 commentread comment
1 2 3 4 5
x 6
add to favorites
×
Save as Personal and add changes to this tab that will be seen only by you. Learn more ›
×
You can save this tab as Personal to edit and correct it or add notes. All changes will be seen only by you. Learn more »
launch autoscroll
font size
0
reset
guitar tuner
backing track
0:00
0:00
edit
Autoscroll
slow
fast
+/-
esc
set tempo
stop
Difficulty
This would be my second tab (though I don't remember what the song for my first was
called. Feel free to leave any comments or constructive criticism below. I only wrote this
because I found I was dissatisfied with the bass tab that's already up for this song, 
and found my particular version much more fun to play. ENJOY!

[Verse]

G--------------|---0-4p0-----0h2-|--------------|---------------|
D------------2-|---------2-4-----|------------2-|---5-4-2-2-----|
A-0--2-0-2h4---|-0---------------|-0--2-0-2h4---|-0---------5-2-|
E--------------|-----------------|--------------|---------------|


G--------------|---0-2-4-0-----0h2-|--------------|---------------|
D------------2-|-----------2-4-----|------------2-|---5-4-2-2-----|
A-0--2-0-2h4---|-0-----------------|-0--2-0-2h4---|-0---------5-2-|
E--------------|-------------------|--------------|---------------|

G--------------|---0-2-4-0-----0h2-|--------------|---------------|
D------------2-|-----------2-4-----|------------2-|---5-4-2-2-----|
A-0--2-0-2h4---|-0-----------------|-0--2-0-2h4---|-0---------5-2-|
E--------------|-------------------|--------------|---------------|

G--------------|---0-2-4-0-----0h2-|--------------|---------------|
D------------2-|-----------2-4-----|------------2-|---5-4-2-2-----|
A-0--2-0-2h4---|-0-----------------|-0--2-0-2h4---|-0---------5---|
E--------------|-------------------|--------------|---------------|

[Chorus]

G------------|----------------|------------|----------|
D----5-4-2---|--------------2-|----5-4-2---|----------|
A------------|--------2-3-5---|------------|----------|
E-3--------5-|-0--2-3---------|-3--------5-|-0----0-0-|


G------------|----------------|------------|
D----5-4-2---|--------------2-|------------|
A------------|--------2-3-5---|-5----------|
E-3--------5-|-0--2-3---------|------------|

[Verse]

G--------------|---0-2-4-0-----0h2-|--------------|---------------|
D------------2-|-----------2-4-----|------------2-|---5-4-5-7-----|
A-0--2-0-2h4---|-0-----------------|-0--2-0-2h4---|-0-------------|
E--------------|-------------------|--------------|---------------|

G--------------|---0-2-4-0-----0h2-|--------------|---------------|
D------------2-|-----------2-4-----|------------2-|---5-4-2-2-----|
A-00-2-0-2h4---|-0-----------------|-0--2-0-2h4---|-0---------5-2-|
E--------------|-------------------|--------------|---------------|

G--------------|---0-2-4-0-----0h2-|--------------|---------------|
D------------2-|-----------2-4-----|------------2-|---5-4-2-2-----|
A-0--2-0-2h4---|-0-----------------|-0--2-0-2h4---|-0---------5-2-|
E--------------|-------------------|--------------|---------------|

G--------------|---0-2-4-0-----0h2-|--------------|---------------|
D------------2-|-----------2-4-----|------------2-|---5-4-2-2-----|
A-0--2-0-2h4---|-0-----------------|-0--2-0-2h4---|-0---------5-2-|
E--------------|-------------------|--------------|---------------|

G--------------|---0-2-4-0-----0h2-|--------------|---------------|
D------------2-|-----------2-4-----|------------2-|---5-4-2-2-----|
A-0--2-0-2h4---|-0-----------------|-0--2-0-2h4---|-0---------5-2-|
E--------------|-------------------|--------------|---------------|

[Chorus]

G------------|----------------|------------|----------|
D----5-4-2---|--------------2-|----5-4-2---|----------|
A------------|--------2-3-5---|------------|----------|
E-3--------5-|-0--2-3---------|-3--------5-|-0----0-0-|


G------------|----------------|------------|
D----5-4-2---|--------------2-|------------|
A------------|--------2-3-5---|-5----------|
E-3--------5-|-0--2-3---------|------------|

[End Verse]

G------12-11-----|------12-11-----|------12-11-----|------12-11-----|
D----------------|----------------|----------------|----------------|
A-3/10-------12\-|-3/10-------12\-|-5/10-------12\-|-5/10-------12\-|
E----------------|----------------|----------------|----------------|

G------12-11-----|------12-11-----|
D----------------|----------------|
A-3/10-------12\-|-3/10-------12\-|
E----------------|----------------|

G------12-11-----|------12-11-----------12-11-|
D----------------|----------------------------|
A-5/10-------12\-|-5/10--------12\-5/10-------|
E----------------|----------------------------|

G------12-11-----|------12-11-----|------12-11-----|------12-11-----|
D----------------|----------------|----------------|----------------|
A-3/10-------12\-|-3/10-------12\-|-5/10-------12\-|-5/10-------12\-|
E----------------|----------------|----------------|----------------|

G------12-11-----|------12-11-----|
D----------------|----------------|
A-3/10-------12\-|-3/10-------12\-|
E----------------|----------------|

G------12-11-----|------12-11-----------12-11-|
D----------------|----------------------------|
A-5/10-------12\-|-5/10--------12\-5/10-------|
E----------------|----------------------------|

G------12-11-----|------12-11-----|------12-11-----|------12-11-----|
D----------------|----------------|----------------|----------------|
A-3/10-------12\-|-3/10-------12\-|-5/10-------12\-|-5/10-------12\-|
E----------------|----------------|----------------|----------------|

G------12-11-----|------12-11-----|------12-11-----|------12-11-----|
D----------------|----------------|----------------|----------------|
A-3/10-------12\-|-3/10-------12\-|-5/10-------12\-|-5/10-------12\-|
E----------------|----------------|----------------|----------------|

G------12-11-----|------12-11-----|------12-11-----|------12-11-----|
D----------------|----------------|----------------|----------------|
A-3/10-------12\-|-3/10-------12\-|-5/10-------12\-|-5/10-------12\-|
E----------------|----------------|----------------|----------------|

G------12-11-----|------12-11-----|--------------|
D----------------|----------------|--------------|
A-3/10-------12\-|-3/10-------12\-|-5------------|
E----------------|----------------|--------------|

{KEY}
h = hammer-on
p = pull-off
/ = slide up neck
\ = slide down neck

NOTES:
The End Verse part features 2 sections where you need to slide up and down the neck much
faster than the rest of that part of the song (see the 3rd and 6th lines of tab from
the start of the End Verse). You could technically slide from anywhere on the low end of 
the A string to the 10th fret, but I placed the 5th fret as the default starting position.
So long as you're in the general area of the 5th fret it shouldn't matter too much.

The Verse also features hammer-ons, but you can substitute those for slides for a much
smoother sound. I prefer the hammer-on for this particular song, however.

            
            
Suggest correction
Creating personal tab
Creating personal tab
You can edit any tab online and save it as your Personal.

You can edit, replace or remove any tab part or add personal notes – all changes will be seen only by you.

Personal tabs can be accessed anytime from any device, even offline.
Learn more »
comments
print report bad tab
1 comment total.
0 reply
lisahogrelius 160 Apr 18, 2016 10:56 AM

By far the best version on here! Thanks for sharing :D

guest
Wanna post a correction for this tab? Suggest correction