Oops, an error
Loading. Please wait.

Head Over Heels bass

version 5
version 5

Whole song

Interactive

115 views 3 this week
2 commentsread comments
1 2 3 4 5
1 last vote to show rating
add to favorites
×
Save as Personal and add changes to this tab that will be seen only by you. Learn more ›
×
You can save this tab as Personal to edit and correct it or add notes. All changes will be seen only by you. Learn more »
launch autoscroll
font size
0
reset
guitar tuner
backing track
0:00
0:00
edit
Autoscroll
slow
fast
+/-
esc
set tempo
stop
Author
Difficulty
I wanted to submit my own tab for this because I didn't like the other ones.

Here is the instrumental version that I used for the time stamps 
https://www.youtube.com/watch?v=f69sSPoX2tQ

[Intro](0:05-0:36)

G|-5~---------------|-7~---------------|
D|-5~---------------|-7~---------------|
A|-3~---------------|-5~---------------|
E|------------------|------------------|     x2

[Verse] (0:36-1:16)

G|-------------------------4-----------|------------------------------------------|
D|---------------2-----5-7---5--2-4-5/7|---------------2-----5----4----2-2--------|
A|--0----2-0-2/4---0-0-----------------|--0----2-0-2/4---0-0-----------------5----|
E|-------------------------------------|------------------------------------------|     x3
  ........"I wanted to be"......................"And talk about"..................

G|-------------------------4-----------|------------------------------------------|
D|---------------2-----5-7---5--2-4-5/7|---------------2-----5----4----2-2--------|
A|--0----2-0-2/4---0-0-----------------|--0----2-0-2/4---0-0-----------------5~---|
E|-------------------------------------|------------------------------------------|     x1 Hold the final note

[Chorus] (1:16-1:46)

G|-------------------------------|-------------------------------|
D|------5-4---------------------2|------5-4----------------------|
A|----------5-2-------------2-5--|----------5-2------------------|
E|3~--x----------0~---2-3-5------|3~--x----------0~--x--0-0------|     x1
 "Something happens"............."Find out"......

G|-------------------------------|-------------------------------|
D|------5-4---------------------2|-------------------------------|
A|----------5-2-------------2-5--|5~-----------------------------|
E|3~--x----------0~---2-3-5------|-------------------------------|     x1
 "Something happens"............."Don't take my heart"......


G|-------------------------4-----------|-------------------------------------7/---|
D|---------------2-----5-7---5--2-4-5/7|---------------2-----5----4----5-----7/---|
A|--0----2-0-2/4---0-0-----------------|--0----2-0-2/4---0-0-----------------5/---|
E|-------------------------------------|------------------------------------------|     x1 
  ...................."Throw it away"......................."Throw it away".......
              
I personally like to strum the fifth chord and slide it back  

[Verse 2] (1:47-2:26)


G|---------------------4-----------|------------------------------------------|
D|-----------2-----5-7---5--2-4-5/7|---------------2-----5----4----2-2--------|
A|-0-2-0-2/4---0-0-----------------|--0----2-0-2/4---0-0-----------------5----|
E|---------------------------------|------------------------------------------|     x1 Minor variation
............"I made".............................."Thought of"................

G|-------------------------4----------|------------------------------------------|
D|---------------2-----5-7---5--------|---------------2-----5----4----2-2--------|
A|--0----2-0-2/4---0-0---------2-4-5/7|--0----2-0-2/4---0-0-----------------5----|
E|------------------------------------|------------------------------------------|     x2

G|-------------------------4-----------|------------------------------------------|
D|---------------2-----5-7---5--2-4-5/7|---------------2-----5----4----2-2--------|
A|--0----2-0-2/4---0-0-----------------|--0----2-0-2/4---0-0-----------------5~---|
E|-------------------------------------|------------------------------------------|     x1 Hold the final note

[Chorus 2] (2:26-2:46)

G|-------------------------------|-------------------------------|
D|------5-4---------------------2|------5-4----------------------|
A|----------5-2-------------2-5--|----------5-2------------------|
E|3~--x----------0~---2-3-5------|3~--x----------0~--x--0-0------|     x1
 "Something happens"............."Find out"......

G|-------------------------------|-------------------------------|
D|------5-4---------------------2|-------------------------------|
A|----------5-2-------------2-5--|5~-----------------------------|
E|3~--x----------0~---2-3-5------|-------------------------------|     x1
 "Something happens"............."Don't take my heart"......

*Drum phaser thing* (2:46-2:52)

[Outro] (2:52-End)

G|-----------12-11-------|-----------12-11-------|
D|-----------------12/5--|-----------------12/5--|
A|3~----/10--------------|3~----/10--------------|
E|-----------------------|-----------------------|     x1

G|-----------12-11-------|-----------12-11-------|
D|-----------------12/5--|-----------------12/5--|
A|5~----/10--------------|5~----/10--------------|
E|-----------------------|-----------------------|     x1

G|-----------12-11-------|-----------12-11-------|
D|-----------------12/5--|-----------------12/5--|
A|3~----/10--------------|3~----/10--------------|
E|-----------------------|-----------------------|     x1

G|-----------12-11-------|--------12-11----------12-11|
D|-----------------12/5--|--------------12------------|
A|5~----/10--------------|--5/10------------5/10------|
E|-----------------------|----------------------------|     x1 Variation
  
Its hard to write down the timing exactly so listen carefully to the instrumental version.

G|-----------12-11-------|-----------12-11-------|
D|-----------------12/5--|-----------------12/5--|
A|3~----/10--------------|3~----/10--------------|
E|-----------------------|-----------------------|     x1

G|-----------12-11-------|-----------12-11-------|
D|-----------------12/5--|-----------------12/5--|
A|5~----/10--------------|5~----/10--------------|
E|-----------------------|-----------------------|     x1

G|-----------12-11-------|-----------12-11-------|
D|-----------------12/5--|-----------------12/5--|
A|3~----/10--------------|3~----/10--------------|
E|-----------------------|-----------------------|     x1

G|-----------12-11-------|--------12-11----------12-11|
D|-----------------12/5--|--------------12------------|
A|5~----/10--------------|--5/10------------5/10------|
E|-----------------------|----------------------------|     x1 Variation

There is a single note added to the variation here but I can't figure it out. It won't matter to much though.


G|-----------12-11-------|-----------12-11-------|
D|-----------------12/5--|-----------------12/5--|
A|3~----/10--------------|3~----/10--------------|
E|-----------------------|-----------------------|     x1

G|-----------12-11-------|-----------12-11-------|
D|-----------------12/5--|-----------------12/5--|
A|5~----/10--------------|5~----/10--------------|
E|-----------------------|-----------------------|     x1

G|-----------12-11-------|-----------12-11-------|
D|-----------------12/5--|-----------------12/5--|
A|3~----/10--------------|3~----/10--------------|
E|-----------------------|-----------------------|     x1

G|-----------12-11-------|--------12-11----------12-11|
D|-----------------12/5--|--------------12------------|
A|5~----/10--------------|--5/10------------5/10------|
E|-----------------------|----------------------------|     x1 Variation

G|-----------12-11-------|-----------12-11-------|
D|-----------------12/5--|-----------------12/5--|
A|3~----/10--------------|3~----/10--------------|
E|-----------------------|-----------------------|     x1

G|-----------12-11-------|-----------12-11----12/5---|
D|-----------------12/5--|-----------------12--------|
A|5~----/10--------------|5~----/10------------------|
E|-----------------------|---------------------------|     x1 Variation

G|-----------12-11-------|-----------12-11-------|
D|-----------------12/5--|-----------------12/5--|
A|3~----/10--------------|3~----/10--------------|
E|-----------------------|-----------------------|     x1

G|-----------------------|
D|-----------------------|
A|5~---------------------|
E|-----------------------|
"Time flies"..............

So there you have it. Let me know what you think.

Legend

~ = Hold note
/ = Slide note

            
            
Suggest correction
Creating personal tab
Creating personal tab
You can edit any tab online and save it as your Personal.

You can edit, replace or remove any tab part or add personal notes – all changes will be seen only by you.

Personal tabs can be accessed anytime from any device, even offline.
Learn more »
Give kudos to tab author, rate the tab!
1 2 3 4 5
comments
print report bad tab
2 comments total.
0 reply
Frostmind 74 Mar 13, 2017 05:11 AM

I think this:

Chorus (1:16-1:46)

G|-------------------------------|-------------------------------|
D|------5-4---------------------2|------5-4----------------------|
A|----------5-2-------------2-5--|----------5-2------------------|
E|0~--x----------0~---2-3-5------|0~--x----------0~--x--0-0------|     x1
[code][/code]
[code]should be this (also for other chorus parts):[/code]
Chorus (1:16-1:46)

G|-------------------------------|-------------------------------|
D|------5-4---------------------2|------5-4----------------------|
A|----------5-2-------------2-5--|----------5-2------------------|
E|3~--x----------0~---2-3-5------|3~--x----------0~--x--0-0------|

guest
You may want to rate the tab now too:
select rating
Wanna post a correction for this tab? Suggest correction