Oops, an error
Loading. Please wait.

Head Over Heels bass

version 6
version 6

Whole song

Interactive

67 views 1 this week
no commentswrite comment
1 2 3 4 5
3 more votes to show rating
add to favorites
×
Save as Personal and add changes to this tab that will be seen only by you. Learn more ›
×
You can save this tab as Personal to edit and correct it or add notes. All changes will be seen only by you. Learn more »
launch autoscroll
font size
0
reset
guitar tuner
backing track
0:00
0:00
edit
Autoscroll
slow
fast
+/-
esc
set tempo
stop
// means hold for that long (NOT SLIDE in this case)
so //// would mean hold for 1a2a (or two beats)

1a2a3a4a is the tempo including the off beats of ‘a’, as you play many off beats.

[Verse]
 starts at 0:30 
G|-----------------------------------------------------------------------|
D|--------2-0-----5---7---9–--5-------5-7---------2-0-----5---4---2-2-0—-|X4                                               
A|0-0-2-0–----4-0-----------------7-7-----0-0-2-0-----4-0----------------|                              
E|-----------------------------------------------------------------------|
  1 a 2 a 3 a 4 a 1 a 2 a 3 a 4 a 1 a 2 a 1 a 2 a 3 a 4 a 1 a 2 a 3 a 4 a

[Chorus]
G|----------------------------------------------------------------|
D|--------5-4-/-/-----------0-2-/---------5-4—————----------------| 
A|----------------------0-2-------------------5-2————-------------| 
E|3-/-/-/---------0-2-3-----------3-/-/-/---------0-/-/-/-/-/-/-/-|
  1 a 2 a 3 a 4 a 1 a 2 a 3 a 4 a 1 a 2 a 3 a 4 a 1 a 2 a 3 a 4 a

G|----------------------------------------------------------------|
D|--------5-4-/-/-----------0-2---0-/-/-/-/-/-/-/-/-/-/-/-/-/-/-/-|
A|----------------------0-2---------------------------------------|
E|3-/-/-/---------0-2-3---------—---------------------------------|
  1 a 2 a 3 a 4 a 1 a 2 a 3 a 4 a 1 a 2 a 3 a 4 a 1 a 2 a 3 a 4 a

[Verse]
 IMMEDIATELY (before singing starts again)
G|-----------------------------------------------------------------------|
D|--------2-0-----5---7---9–--5-------5-7---------2-0-----5---4---2-2-0—-|X5                                               
A|0-0-2-0–----4-0-----------------7-7-----0-0-2-0-----4-0----------------|                              
E|-----------------------------------------------------------------------|
  1 a 2 a 3 a 4 a 1 a 2 a 3 a 4 a 1 a 2 a 1 a 2 a 3 a 4 a 1 a 2 a 3 a 4 a

[Chorus]
G|----------------------------------------------------------------|
D|--------5-4-/-/-----------0-2-/---------5-4—————----------------| 
A|----------------------0-2-------------------5-2————-------------| 
E|3-/-/-/---------0-2-3-----------3-/-/-/---------0-/-/-/-/-/-/-/-|
  1 a 2 a 3 a 4 a 1 a 2 a 3 a 4 a 1 a 2 a 3 a 4 a 1 a 2 a 3 a 4 a

G|----------------------------------------------------------------|
D|--------5-4-/-/-----------0-2---0-/-/-/-/-/-/-/-/-/-/-/-/-/-/-/-|
A|----------------------0-2---------------------------------------|
E|3-/-/-/---------0-2-3---------—---------------------------------|
  1 a 2 a 3 a 4 a 1 a 2 a 3 a 4 a 1 a 2 a 3 a 4 a 1 a 2 a 3 a 4 a

[Outro]
(thats 12,11,and 10)
G|--------1211------------1211-----------1211-------------1211----|
D|----5-------10------5-------10------7-------10------7-------10--| REPEAT TILL END
A|3---------------3---------------5---------------5---------------|
E|----------------------------------------------------------------|
  1 a 2 a 3 a 4 a 1 a 2 a 3 a 4 a 1 a 2 a 3 a 4 a 1 a 2 a 3 a 4 a

            
            
Suggest correction
Creating personal tab
Creating personal tab
You can edit any tab online and save it as your Personal.

You can edit, replace or remove any tab part or add personal notes – all changes will be seen only by you.

Personal tabs can be accessed anytime from any device, even offline.
Learn more »
Give kudos to tab author, rate the tab!
1 2 3 4 5
comments
print report bad tab
guest
You may want to rate the tab now too:
select rating
Wanna post a correction for this tab? Suggest correction