Oops, an error
Loading. Please wait.

The Hurting bass

753 views 3 this week
2 commentsread comments
1 2 3 4 5
3 more votes to show rating
add to favorites
×
Save as Personal and add changes to this tab that will be seen only by you. Learn more ›
×
You can save this tab as Personal to edit and correct it or add notes. All changes will be seen only by you. Learn more »
launch autoscroll
font size
0
reset
guitar tuner
edit
Autoscroll
slow
fast
+/-
esc
set tempo
stop
Difficulty
G|------------------------------------------------------|
D|------------------------------------------------------|
A|------------------------------------------------------|
E|-9-9-9-9-9-9-9-9-9-9-9-9-7-7-7-7-7-7-4-4-4-4-4-7-11-7-|


G-------------------------------------------------------|
D-------------------------------------------------------|
A-------------------------------------------------------|
E----33333333-2222222-1111111-2222222-------------------|

            
            
Suggest correction
Creating personal tab
Creating personal tab
You can edit any tab online and save it as your Personal.

You can edit, replace or remove any tab part or add personal notes – all changes will be seen only by you.

Personal tabs can be accessed anytime from any device, even offline.
Learn more »
Give kudos to tab author, rate the tab!
1 2 3 4 5
comments
print report bad tab
2 comments total.
+2 reply
eduardovercetti 10 Jan 21, 2015 01:33 AM

while the one you posted is technically correct it's not exactly a comfortable way of playing it, and upon inspection of curt smith himself playing the bass for this song, it is much better played as:

Is it an horrific dream...
G|--------------------------------------------------------------|
D|----------------------------------------------------------1---|
A|--4-4-4-4--4-4-4--4-4-4--4-4-4-2-2-2-2--2-2-2---------2-2---2-|
E|----------------------------------------------4-4-4-4---------|

On my own, could you ease my load...
G-----------------------------------------------------------------------------|
D-----------------------------------------------------------------------------|
A-----------------------------------------------------------------------------|
E--3--3-3--3-3--3-3-3-2--2-2--2-2--2-2-2-1--1-1--1-1--1-1-1-2--2-2--2-2--2-2-2|

There is a part for the bridge of the song that I haven't yet figured out but it's a solo, seemingly in the key of Am. Alternatively you could follow the chord pattern of Am, Bb, Fmaj7 and G.

guest
Wanna post a correction for this tab? Suggest correction