Oops, an error
Loading. Please wait.

The Working Hour Bass Tab

version 1
version 1

Whole song

Interactive

768 views 1 this week
no commentswrite comment
1 2 3 4 5
please rate
add to favorites
launch autoscroll
font size
0
reset
guitar tuner
Autoscroll
slow
fast
+/-
esc
set tempo
stop
Help us to improve Ultimate-Guitar.com Take our survey!
×
Contributor
RobertM95 160
-------------------------------------------------------------------------------
                             The Working Hour - Tears for Fears  
-------------------------------------------------------------------------------
Tabbed by: RobertM95
E-mail: robertmanrique9644@gmail.co.uk

Tuning:

Verse 1

G|---------------------------------------------------5-------------|
D|------1/2------------------5--5-----------------3----------3-----|   x6
A|--------------------------------5--3-------3--5--------5---------|
E|-------------------3---------------------------------------------|

Bridge 1

G|----------------------------------------|
D|------0--3------------0--3--------------|  x1
A|----------------------------------------|
E|--------------1--1------------1--1------|

Verse 2

G|-----------------------------------------------------------------|
D|------1/2------------------5--5-----------------3----------------|   x5
A|--------------------------------5--3-------3--5------------------|
E|-------------------3---------------------------------------------|

Bridge 2

G|----------------------------------------|
D|------0--3------------0--3--------------|  x4
A|----------------------------------------|
E|--------------1--1------------1--1------|

Chorus 1

G|-----------------------------------11----------------------------|
D|-------------------------------7/--------------------9--9--------|   x1
A|-----------------------------5----------12--9--------------------|
E|----2--2--2----5--5--5-----5-------------------11--9-------------|

Chours 2

G|-----------------------------------11---------------9--7---------|
D|-------------------------------7/--------------9--7-------9--7---|   x1
A|-----------------------------5----------12--9--------------------|
E|----2--2--2----5--5--5-----5-------------------------------------|

Bridge 3

G|---------------------------------------------------------|
D|---------------------------------------------------------|   x1
A|------2----------5----------7----------5-----5/16--------|
E|---------------------------------------------------------|

Rest

Instrumental verse 3

G|-----------------------------------11----------------------------|
D|-------------------------------7/--------------------9--9--------|   x3
A|-----------------------------5----------12--9--------------------|
E|----2--2--2----5--5--5-----5-------------------11--9-------------|


G|-----------------------------------11---------------9--7---------|
D|-------------------------------7/--------------9--7-------9--7---|   x1
A|-----------------------------5----------12--9--------------------|
E|----2--2--2----5--5--5-----5-------------------------------------|


G|-----------------------------------11----------------------------|
D|-------------------------------7/--------------------9--9--------|   x1
A|-----------------------------5----------12--9--------------------|
E|----2--2--2----5--5--5-----5-------------------11--9-------------|


G|-----------------------------------11---------------9--7---------|
D|-------------------------------7/--------------9--7-------9--7---|   x1
A|-----------------------------5----------12--9--------------------|
E|----2--2--2----5--5--5-----5-------------------------------------|


G|-----------------------------------11----------------------------|
D|-------------------------------7/--------------------9--9--------|   x1
A|-----------------------------5----------12--9--------------------|
E|----2--2--2----5--5--5-----5-------------------11--9-------------|

Outro

G|---------------------------------------------------------|
D|---------------------------------------------------------|   x1
A|------2-----5-----7-----5-----2-----5-----7----------5---|
E|-----------------------------------------------000-------|




| /  slide up
| \  slide down
| h  hammer-on
| p  pull-off
| ~  vibrato
| +  harmonic
| x  Mute note
===============================================================================
comments
We did not receive enough feedback on this tab! Please rate:
print report bad tab
1 2 3 4 5
I want to post or [tab]
guest
You may want to rate the tab now too:
select rating
Please do not post tabs as comments. Select "correction" instead!