Oops, an error
Loading. Please wait.

Watch Me Bleed Bass Tab

482 views 3 this week
no commentswrite comment
1 2 3 4 5
3 more votes to show rating
add to favorites
launch autoscroll
font size
0
reset
guitar tuner
Autoscroll
slow
fast
+/-
esc
set tempo
stop
Help us to improve Ultimate-Guitar.com Take our survey!
×
Author
-------------------------------------------------------------------------------
                             Watch Me Bleed - Tears for Fears 
-------------------------------------------------------------------------------
Tabbed by: RobertM95
E-mail: robertmanrique9644@gmail.com

Tuning:

intro


G|---------------------------------------------------------------------------|
D|---------------------------------------------------------------------------|
A|--------------3-333-33-3------------3-333-33-3-------------3-333-33-3------|
E|---0-000-00-0------------0-000-00-0-------------0-000-00-0-----------------|

G|---------------------------------------------------------|
D|---------------------------------------------------------|
A|--------------3-333-33-3---0-000-00-0--------------------|
E|---0-000-00-0--------------------------3-333---2-222-----|

G|---------------------------------------------------------------------------|
D|---------------------------------------------------------------------------|
A|--------------3-333-33-3------------3-333-33-3---0-000-00-0----------------|
E|---0-000-00-0------------0-000-00-0-------------------------3-333-2-222----|

Chorus

G|----------------------------------------------------------------|
D|----------------------------------------------------------------|
A|----------3--------------3-------0------------------------------|
E|----0------------0------------------------3-------2-------0-----|              

G|---12-12-12-11-9-9-9-11-12-12-12-11-9-9-9----------------------------------|
D|---------------------------------------------------------------------------|
A|-------------------------------------------------3-333-33-3----------------|
E|---------------------------------------------------------------------------|

G|---12-12-12-11-9-9-9-11-12-12-12-11-9-9-9----------------------------------|
D|---------------------------------------------------------------------------|
A|-------------------------------------------------3-333-33-3----------------|
E|---------------------------------------------------------------------------|

G|---------------------------------|
D|---------------------------------|
A|---0-000-00-0--------------------|
E|---------------3-333-2-222-------|


Chorus


G|----------------------------------------------------------------|
D|----------------------------------------------------------------|
A|----------3--------------3-------0------------------------------|
E|----0------------0------------------------3-------2-------0-----|   

G|---------------------------------------------------------------------------|
D|---------------------------------------------------------------------------|
A|-----3--------1-----------------------5----------3----------1--------------|
E|-----------------------4-------3--------------------------------------5----|

G|---------------------------------------------------------------------------|
D|---------------------------------------------------------------------------|
A|--------------3-333-33-3------------3-333-33-3---0-000-00-0----------------|
E|---0-000-00-0------------0-000-00-0-------------------------3-333-2-222----|

Verse

G|---------------------------------------------------------------------------|
D|---------------------------------------------------------------------------|
A|-----3--------1-----------------------5----------3----------1--------------|
E|-----------------------4-------3--------------------------------------5----|

G|---------------------------------------------------------------------------|
D|---------------------------------------------------------------------------|
A|--------------3-333-33-3------------3-333-33-3---0-000-00-0----------------|
E|---0-000-00-0------------0-000-00-0-------------------------3-333-2-222----|

Chorus

G|---------------------------------------------------------------------------|
D|---------------------------------------------------------------------------|
A|--------------3-333-33-3------------3-333-33-3---0-000-00-0----------------|
E|---0-000-00-0------------0-000-00-0-------------------------3-333-2-222----|

G|---------------------------------------------------------------------------|
D|---------------------------------------------------------------------------|
A|--------------3-333-33-3------------3-333-33-3---0-000-00-0----------------|
E|---0-000-00-0------------0-000-00-0-------------------------3-333-2-222-0--|


| /  slide up
| \  slide down
| h  hammer-on
| p  pull-off
| ~  vibrato
| +  harmonic
| x  Mute note
===============================================================================
Suggest correction
Give kudos to tab author, rate the tab!
1 2 3 4 5
comments
print report bad tab
guest
You may want to rate the tab now too:
select rating
Wanna post a correction for this tab? Suggest correction