Oops, an error
Loading. Please wait.

Dentro Del Pecho Tab

18 views 1 this week
no commentswrite comment
1 2 3 4 5
3 more votes to show rating
add to favorites
launch autoscroll
font size
0
reset
how to read this tab
guitar tuner
Autoscroll
slow
fast
+/-
esc
set tempo
stop
De todo corazón de parte de JhonnySilva y de GilbertoMedina.
Nemesis_gi666@ y Alexander_eljhonny@
Para sus críticas constructivas.

Intro: D - A - C - G

        D            A5                 C                  G
E-2-----2------2----5-------5------5----0---------0---0----3------3---
B-3---3---3----3----5-----5---5----5----1------1----1------3----3---3-
G---2-------2-----------6-------6-----------0-----------------0-------
D---------------------------------------------------------------------
A---------------------------------------------------------------------
E---------------------------------------------------------------------

D                              A5
Y que felicidad fue volver a verte
C                            G
Parecías un ángel entre la gente
D                            A5
Más hermosa que nunca tú caminabas
C                                G
Y en tus ojitos dos estrellas brillaban

Vuelta:

        D            A5                 C                  G
E-2-----2------2----5-------5------5----0---------0---0----3------3---
B-3---3---3----3----5-----5---5----5----1------1----1------3----3---3-
G---2-------2-----------6-------6-----------0-----------------0-------
D---------------------------------------------------------------------
A---------------------------------------------------------------------
E---------------------------------------------------------------------

D                                 A5
Tengo que confesarte que no he podido
C                        G
Recuperar mi vida te necesito
D                           A5
Vives en cada uno de mis latidos
C                                G
Y a pesar de los años yo no te olvido

Bm                                         A
En el corazón guardo el mismo sentimiento por ti
Bm                                           A
Nunca imagine que el destino iba a acercarte hasta mí

Coro:
D                            A5
Dentro del pecho llevo escrito tu nombre
       C                            G
Y yo daría lo que no tengo para que vuelvas
D                      A5
Dentro del pecho se ilumina
                 C                           G
Mi alma con tus besos se apagarían todas mis penas

D                A5
Aaayy ya Aaayyy
C                G
Aaayy ya aayyy
D                     A5
Aaaaa Siempre te voy a amar
C               G
Aaayy ya aayyy

SEGUIDAMENTE HASTA EL FINAL DE LA CANCION D-A5-C-G
Suggest correction
Give kudos to tab author, rate the tab!
1 2 3 4 5
comments
print report bad tab
guest
You may want to rate the tab now too:
select rating
Wanna post a correction for this tab? Suggest correction