Oops, an error
Loading. Please wait.

Satellit Bass Tab

3,692 views 6 this week
no commentswrite comment
1 2 3 4 5
please rate
add to favorites
launch autoscroll
font size
0
reset
guitar tuner
Tab Pro tools
  • play this tab
  • loop segment
  • change instrument
  • show fretboard
  • metronome
×
Best way to learn
"Satellit"
Autoscroll
slow
fast
+/-
esc
set tempo
stop
Contributor
Difficulty
intermediate
Intro
  
   Gm              Dm      Gm             Dm                
G-----------------------|---------------------------------|
D-----------------------|--3h5----------------------------|
A-----------1----3--5~--|--------3h5------1--3--1---------|
E-3--1--3---------------|--------------------------3--1---|

  Gm         Dm         Gm        Dm
G----------------------|------------------------|
D----------------------|-----3~-----------------|
A----------1-----------|-3h5------3--5--3--1----|
E-3--1--3------3---1---|----------------------3-|
 

   Gm              Dm      Gm             Dm               
G-----------------------|---------------------------------|
D-----------------------|--3h5----------------------------|
A-----------1----3--5~--|--------3h5------1--3--1---------|
E-3--1--3---------------|--------------------------3--1---|


  Gm         Dm         Gm        Dm
G----------------------|---------------------|
D----------------------|-----3~--------------|
A----------1-----------|-3h5-----------------|
E-3--1--3------3---1---|------------1---2----|




verse


   Gm         Dm7      Eb          F        
G-----------------|------------------------|
D-----------------|------------------------|
A---------3-4-5~--|---5-6~-----6-7-8--8----|
E--3~-------------|------------------------|
 
 Gm        Dm7      Eb          Bb/F
G---------------|-----------------------|
D---------------|-----------------------|
A-/10---3-4-5~--|----5-6~----6-7-8~-----|
E---------------|-----------------------|


     Bb/F       F      Bb7             Cm7  
G-------------------|------9-10-11----------|
D-------------------|-7-8-9------------/10--|
A-6-7-8~----7-8-9~--|-----------------------|
E-------------------|-----------------------|
                                                    
    Am7-5    D7            Gm7       Bb7/F                                     
G---------------------|-----------------------| 
A-9-8-7~--------------|------------8----------|
D---------------------|-8----10~-----10-8~----|
E----------8/10-------|---10------------------|


  Eb       Bb/D      Cm7                 
G-------------------|------------------------| 
D-6-------5---------|------------------------| 
A---8-6~----6-5~----|--5---------------------|   
E-------------------|------8----8~-----1--2--|            

   Gm         Dm7      Eb          F        
G-----------------|------------------------|
D-----------------|------------------------|
A---------3-4-5~--|---5-6~-----6-7-8--8----|
E--3~-------------|------------------------|
 
 Gm        Dm7      Eb          Bb/F
G---------------|-----------------------|
D---------------|-----------------------|
A-/10---3-4-5~--|----5-6~----6-7-8~-----|
E---------------|-----------------------|



     Bb/F       F      Bb7             Cm7   
G-------------------|------9-10-11----------|
D-------------------|-7-8-9------------/10--|
A-6-7-8~----7-8-9~--|-----------------------|
E-------------------|-----------------------|

    Am7-5    D7            Gm7       Bb7/F
G---------------------|-----------------------|
D-9-8-7~--------------|------------8----------|
A---------------------|-8----10~-----10-8~----|
E----------8/10-------|---10------------------|


   Eb       Bb/D     Cm7                         F11
G------------------|---------------------------|----------10---10--10--|
D-6--------5-------|---------------10---10--10-|-----------------------|
A---8-6~-----6-5~--|--5------------------------|-8---8--8--------------|
E------------------|----8----8---8-------------|-----------------------|


Chorus

  Bb        Dm7            Eb         F11      
G------------------------|--------------------|
D------------------------|---------------5-7--|
A-------5-----------5-8--|-----5-6-5-6-8------|
E-6---6--8--6---6-8------|-6-8----------------|

 Bb          Dm7         Eb     Bb/f   F
G----------------------|-------------------------|
D-8--------------------|-------------------------|
A----5-------------5-8-|-6---1---------5-3-5-3---|
E-------8-6-6--6-8-----|-------3-1~------------5-|


  Bb        Dm7            Eb         F11      
G------------------------|--------------------|
D------------------------|---------------5-7--|
A-------5-----------5-8--|-----5-6-5-6-8------|
E-6---6--8--6---6-8------|-6-8----------------|

 Bb          Dm7         Eb      Bb/f  F
G----------------------|---------------------|
D-8--------------------|---------------------|
A----5-------------5-8-|-6---1---------------|
E-------8-6-6--6-8-----|-------3-1--1--1--1--|


 Bb7        Eb       Bb/D    Cm7           
G-----------------|------------------|
D-----------------|------------------|
A----------6---6--|--5---5-----------|
E--6---6----------|----------8---8---|

          F11             Bb       Dm7      Eb      
G------------------------|----------------|----------------|
D------------------------|----------------|----------------|
A---------8---8---8---8--|---------5---5--|-6---6~---------|
E-8---8------------------|-6---6----------|-----------1--2-|


verse


   Gm         Dm7      Eb          F        
G-----------------|------------------------|
D-----------------|------------------------|
A---------3-4-5~--|---5-6~-----6-7-8--8----|
E--3~-------------|------------------------|
 
 Gm        Dm7      Eb          Bb/F
G---------------|-----------------------|
D---------------|-----------------------|
A-/10---3-4-5~--|----5-6~----6-7-8~-----|
E---------------|-----------------------|


     Bb/F       F      Bb7             Cm7  
G-------------------|------9-10-11----------|
D-------------------|-7-8-9------------/10--|
A-6-7-8~----7-8-9~--|-----------------------|
E-------------------|-----------------------|
                                                    
    Am7-5    D7            Gm7       Bb7/F                                     
G---------------------|-----------------------| 
A-9-8-7~--------------|------------8----------|
D---------------------|-8----10~-----10-8~----|
E----------8/10-------|---10------------------|


  Eb       Bb/D      Cm7                 
G-------------------|------------------------| 
D-6-------5---------|------------------------| 
A---8-6~----6-5~----|--5---------------------|   
E-------------------|------8----8~-----1--2--|            

   Gm         Dm7      Eb          F        
G-----------------|------------------------|
D-----------------|------------------------|
A---------3-4-5~--|---5-6~-----6-7-8--8----|
E--3~-------------|------------------------|
 
 Gm        Dm7      Eb          Bb/F
G---------------|-----------------------|
D---------------|-----------------------|
A-/10---3-4-5~--|----5-6~----6-7-8~-----|
E---------------|-----------------------|



     Bb/F       F      Bb7             Cm7   
G-------------------|------9-10-11----------|
D-------------------|-7-8-9------------/10--|
A-6-7-8~----7-8-9~--|-----------------------|
E-------------------|-----------------------|

    Am7-5    D7            Gm7       Bb7/F
G---------------------|-----------------------|
D-9-8-7~--------------|------------8----------|
A---------------------|-8----10~-----10-8~----|
E----------8/10-------|---10------------------|


   Eb       Bb/D     Cm7                         F11
G------------------|---------------------------|----------10---10--10--|
D-6--------5-------|---------------10---10--10-|-----------------------|
A---8-6~-----6-5~--|--5------------------------|-8---8--8--------------|
E------------------|----8----8---8-------------|-----------------------|


Chorus


  Bb        Dm7            Eb         F11      
G------------------------|--------------------|
D------------------------|---------------5-7--|
A-------5-----------5-8--|-----5-6-5-6-8------|
E-6---6--8--6---6-8------|-6-8----------------|

 Bb          Dm7         Eb     Bb/f   F
G----------------------|-------------------------|
D-8--------------------|-------------------------|
A----5-------------5-8-|-6---1---------5-3-5-3---|
E-------8-6-6--6-8-----|-------3-1~------------5-|


  Bb        Dm7            Eb         F11      
G------------------------|--------------------|
D------------------------|---------------5-7--|
A-------5-----------5-8--|-----5-6-5-6-8------|
E-6---6--8--6---6-8------|-6-8----------------|

 Bb          Dm7         Eb      Bb/f  F
G----------------------|---------------------|
D-8--------------------|---------------------|
A----5-------------5-8-|-6---1---------------|
E-------8-6-6--6-8-----|-------3-1--1--1--1--|


 Bb7        Eb       Bb/D    Cm7           
G-----------------|------------------|
D-----------------|------------------|
A----------6---6--|--5---5-----------|
E--6---6----------|----------8---8---|

          F11             Bb       Dm7      Eb      
G------------------------|----------------|----------------|
D------------------------|----------------|----------------|
A---------8---8---8---8--|---------5---5--|-6---6~---------|
E-8---8------------------|-6---6----------|-----------1--2-|



Solo

   Gm              Dm      Gm             Dm                
G-----------------------|---------------------------------|
D-----------------------|--3h5----------------------------|
A-----------1----3--5~--|--------3h5------1--3--1---------|
E-3--1--3---------------|--------------------------3--1---|

  Gm         Dm         Gm        Dm
G----------------------|------------------------|
D----------------------|-----3~-----------------|
A----------1-----------|-3h5------3--5--3--1----|
E-3--1--3------3---1---|----------------------3-|
 

   Gm              Dm      Gm             Dm               
G-----------------------|---------------------------------|
D-----------------------|--3h5----------------------------|
A-----------1----3--5~--|--------3h5------1--3--1---------|
E-3--1--3---------------|--------------------------3--1---|


  Gm         Dm         Gm         Dm
G----------------------|---------------------|
D----------------------|-----3~--------------|
A----------1-----------|-3h5-------5-3-5-3---|
E-3--1--3------3---1---|-------------------5-|


Chorus


  Bb        Dm7            Eb         F11      
G------------------------|--------------------|
D------------------------|---------------5-7--|
A-------5-----------5-8--|-----5-6-5-6-8------|
E-6---6--8--6---6-8------|-6-8----------------|

 Bb          Dm7         Eb     Bb/f   F
G----------------------|-------------------------|
D-8--------------------|-------------------------|
A----5-------------5-8-|-6---1---------5-3-5-3---|
E-------8-6-6--6-8-----|-------3-1~------------5-|


  Bb        Dm7            Eb         F11      
G------------------------|--------------------|
D------------------------|---------------5-7--|
A-------5-----------5-8--|-----5-6-5-6-8------|
E-6---6--8--6---6-8------|-6-8----------------|

 Bb          Dm7         Eb      Bb/f  F
G----------------------|---------------------|
D-8--------------------|---------------------|
A----5-------------5-8-|-6---1---------------|
E-------8-6-6--6-8-----|-------3-1--1--1--1--|


 Bb7        Eb       Bb/D    Cm7           
G-----------------|------------------|
D-----------------|------------------|
A----------6---6--|--5---5-----------|
E--6---6----------|----------8---8---|

          F11             
G------------------------|
D------------------------|
A---------8---8---8---8--|
E-8---8------------------|

  Bb        Dm7            Eb         F11      
G------------------------|--------------------|
D------------------------|---------------5-7--|
A-------5-----------5-8--|-----5-6-5-6-8------|
E-6---6--8--6---6-8------|-6-8----------------|

 Bb          Dm7         Eb     Bb/f   F
G----------------------|-------------------------|
D-8--------------------|-------------------------|
A----5-------------5-8-|-6---1---------5-3-5-3---|
E-------8-6-6--6-8-----|-------3-1~------------5-|


  Bb        Dm7            Eb         F11      
G------------------------|--------------------|
D------------------------|---------------5-7--|
A-------5-----------5-8--|-----5-6-5-6-8------|
E-6---6--8--6---6-8------|-6-8----------------|

 Bb          Dm7         Eb      Bb/f  F
G----------------------|---------------------|
D-8--------------------|---------------------|
A----5-------------5-8-|-6---1---------------|
E-------8-6-6--6-8-----|-------3-1--1--1--1--|


 Bb7        Eb       Bb/D    Cm7           
G-----------------|------------------|
D-----------------|------------------|
A----------6---6--|--5---5-----------|
E--6---6----------|----------8---8---|

          F11             
G------------------------|
D------------------------|
A---------8---8---8---8--|   Fade
E-8---8------------------|
comments
We did not receive enough feedback on this tab! Please rate:
print report bad tab
1 2 3 4 5
I want to post or [tab]
guest
You may want to rate the tab now too:
select rating
Please do not post tabs as comments. Select "correction" instead!