Oops, an error
Loading. Please wait.

Biomusicology Tab

8,043 views 3 this week
no commentswrite comment
1 2 3 4 5
excellent!
x 6
add to favorites
launch autoscroll
font size
0
reset
how to read this tab
guitar tuner
Tab Pro tools
  • play this tab
  • loop segment
  • change instrument
  • show fretboard
  • metronome
×
Best way to learn
"Biomusicology"
Autoscroll
slow
fast
+/-
esc
set tempo
stop
Contributor
-------------------------------------------------------------------------------
                             BIOMUSICOLOGY - Ted Leo
-------------------------------------------------------------------------------
Tabbed by: Ben Aitken
Email: ben.j.aitken@gmail.com

Tuning: Standard

Intro, 2x (Fig.1)
|--14p11--14p11--14p11--14p11------------------------------14p11--14p11--14p11--14p11------------------------------|
|------------------------------14p12--14p12--14p12--14p12------------------------------14p12--14p12--14p12--14p12--|
|------------------------------------------------------------------------------------------------------------------|
|------------------------------------------------------------------------------------------------------------------|
|------------------------------------------------------------------------------------------------------------------|
|------------------------------------------------------------------------------------------------------------------|

|--------------------------------------------------------------------------|
|--4--4--4--4--x--x--4--4--4--4--x--x--4--4--4--4--x--x--4--4--4--4--x--x--|
|--4--4--4--4--x--x--4--4--4--4--x--x--4--4--4--4--x--x--4--4--4--4--x--x--|
|--4--4--4--4--x--x--4--4--4--4--x--x--4--4--4--4--x--x--4--4--4--4--x--x--|
|--2--2--2--2--x--x--2--2--2--2--x--x--2--2--2--2--x--x--2--2--2--2--x--x--|
|--------------------------------------------------------------------------|

Verse, play 2 2/3x (Fig. 2)
|--------------------------------4--4--4--4--4--2--2--2--2--2--0--0--0--0--0--4--4--4--4--4--0--0--0--0--0--2--2--2--2--2--|
|--4--4--4--4--4--4--4--4--4--4--4--4--4--4--4--2--2--2--2--2--0--0--0--0--0--5--5--5--5--5--0--0--0--0--0--2--2--2--2--2--|
|--4--4--4--4--4--4--4--4--4--4--4--4--4--4--4--3--3--3--3--2--1--1--1--1--1--6--6--6--6--6--1--1--1--1--1--3--3--3--3--3--|
|--4--4--4--4--4--4--4--4--4--4--6--6--6--6--6--4--4--4--4--3--2--2--2--2--2--6--6--6--6--6--2--2--2--2--2--4--4--4--4--4--|
|--2--2--2--2--2--1--1--1--1--1--6--6--6--6--6--4--4--4--4--4--2--2--2--2--2--4--4--4--4--4--2--2--2--2--2--4--4--4--4--4--|
|--------------------------------4--4--4--4--2--2--2--2--2--2--0--0--0--0--0-----------------0--0--0--0--0--2--2--2--2--2--|

|--------------------------------4--4--4--4--4--2--2--2--2--2--4--4--4--4--4--0--0--0--0--0--4--4--4--4--4--0--0--0--0--0--|
|--4--4--4--4--4--4--4--4--4--4--4--4--4--4--4--2--2--2--2--2--5--5--5--5--5--0--0--0--0--0--5--5--5--5--5--0--0--0--0--0--|
|--4--4--4--4--4--4--4--4--4--4--4--4--4--4--4--3--3--3--3--3--6--6--6--6--6--1--1--1--1--1--6--6--6--6--6--1--1--1--1--1--|
|--4--4--4--4--4--4--4--4--4--4--6--6--6--6--6--4--4--4--4--4--6--6--6--6--6--2--2--2--2--2--6--6--6--6--6--2--2--2--2--2--|
|--2--2--2--2--2--1--1--1--1--1--6--6--6--6--6--4--4--4--4--4--4--4--4--4--4--2--2--2--2--2--4--4--4--4--4--2--2--2--2--2--|
|--------------------------------4--4--4--4--4--2--2--2--2--2-----------------0--0--0--0--0-----------------0--0--0--0--0--|

|--------------------------------------------------------------------------|
|--4--4--4--4--x--x--4--4--4--4--x--x--4--4--4--4--x--x--4--4--4--4--x--x--|
|--4--4--4--4--x--x--4--4--4--4--x--x--4--4--4--4--x--x--4--4--4--4--x--x--|
|--4--4--4--4--x--x--4--4--4--4--x--x--4--4--4--4--x--x--4--4--4--4--x--x--|
|--2--2--2--2--x--x--2--2--2--2--x--x--2--2--2--2--x--x--2--2--2--2--x--x--|
|--------------------------------------------------------------------------|

1st break: Play Fig.1 2x over first bar of Fig.2
2nd verse: 1st 2 bars of Fig. 2
2nd break: 2nd bar of Fig. 2
3rd verse: Fig. 2

3rd break
|--------------------------------------------------------------------------------------------------------------------------------------------|
|--------------------------4-----------4-----4-----4-----5--4--4----x--------------------------------------4-----4----4--4-----5--4--4-------|
|-----4-----4-----4-----3--------3--------4-----4-----4-----6--6----x-----4--4-----4--------3-----3-----------4-------4--4--------6--6-------|
|--6-----6-----6-----5--------5----------------------------------------6--------6-----6--5-----5-----5------------------------------------5--|
|-----------------------------------6-------------------------------------------------------------------6------------------------------------|
|--------------------------------------------------------------------------------------------------------------------------------------------|

|------------------------------------------------------------------------------------------------------------------------------------------------|
|--------------4--4--------------4-----4-----4-----4-------5--4-----------------------------------------4-----4-----4-----4----------------------|
|-----4-----4--4--4-----3-----3--3--------4-----4-----4----------4--6-----4-----4-----4-----3--------3-----3-----4-----4-----4------x--6---------|
|--6-----6-----------5-----5-------------------------------------------5-----6-----6-----6-----5------------------------------------x---------5--|
|-----------------------------------6-------------------------------------------------------------6----------------------------------------------|
|------------------------------------------------------------------------------------------------------------------------------------------------|

Bridge 4x
|---------------------------------------------------------------------------|
|--4--4--4--4--4--4--4--4--4--4--4-----4--4--4--4--4--4--4--5--4--4--4------|
|--4--4--4--4--4--4--4--4--4--4--4-----4--4--4--4--4--4--4--6--6--4--6--6---|
|--6--6--6--6--6--6--5--5--5--5--5--5--4--4--4--4--4--4--3--------------5---|
|-----------------------------------6---------------------------------------|
|---------------------------------------------------------------------------|
   p.m....................................................

4th break (over first 2 bars of Fig. 2)
G2
|----------------------------------------------------------------------------------------------------------------|
|----------------------------------------------------------------------------------------------------------------|
|--4/11----------------11/13\11--6----4----6/8--6\4--6----4/11----------------11/13\11--6----4----6/8--6\4--6----|
|----------------------------------------------------------------------------------------------------------------|
|----------------------------------------------------------------------------------------------------------------|
|----------------------------------------------------------------------------------------------------------------|

|----------------------------------------------------------------14--14----14--14----14--14--14--14----14--14----|
|----------------------------------------------------------------------------------------------------------------|
|--4----4--4----4--4----4--4----4--4----4--4---------------------------------------------------------------------|
|----------------------------------------------------------------------------------------------------------------|
|----------------------------------------------------------------------------------------------------------------|
|----------------------------------------------------------------------------------------------------------------|
Play w/effects & feedback through end

G1
|----------------------------------------------------------------------------------------14--11--14--11--14--11--|
|------------------------------------------------------------------------------------12--------------------------|
|--4/11----------------11/13\11--6----4----6/8--6\4--6----4/11----------------11/13------------------------------|
|----------------------------------------------------------------------------------------------------------------|
|----------------------------------------------------------------------------------------------------------------|
|----------------------------------------------------------------------------------------------------------------|

|--------------------------14--11--14--11--14--11-------------------------------------------------------------------------------|
|--14--12--14--12--14--12-------------------------14--12--14----12--12--12--------12----12--12----12--12----12--12----12--12----|
|-------------------------------------------------------------------------------------------------------------------------------|
|-------------------------------------------------------------------------------------------------------------------------------|
|-------------------------------------------------------------------------------------------------------------------------------|
|-------------------------------------------------------------------------------------------------------------------------------|
Repeat last note through verse

4th verse: First 2 bars of Fig.2

End
|--------------------------------4--4--4--4--4--2--2--2--2--2--4--4--4--4--4--4--4--4--4--4--4--4--4--4--4--4--4--4--4--4-------------|
|--4--4--4--4--4--4--4--4--4--4--4--4--4--4--4--2--2--2--2--2--5--5--5--5--5--5--5--5--5--5--5--5--5--5--5--5--5--5--5--5-------------|
|--4--4--4--4--4--4--4--4--4--4--4--4--4--4--4--3--3--3--3--3--6--6--6--6--6--6--6--6--6--6--6--6--6--6--6--6--6--6--6--6--4----------|
|--4--4--4--4--4--4--4--4--4--4--6--6--6--6--6--4--4--4--4--4--6--6--6--6--6--6--6--6--6--6--6--6--6--6--6--6--6--6--6--6--4----------|
|--2--2--2--2--2--1--1--1--1--1--6--6--6--6--6--4--4--4--4--4--4--4--4--4--4--4--4--4--4--4--4--4--4--4--4--4--4--4--4--4--2----------|
|--------------------------------4--4--4--4--4--2--2--2--2--2-------------------------------------------------------------------------|

| /  slide up
| \  slide down
| h  hammer-on
| p  pull-off
| ~  vibrato
| +  harmonic
| x  Mute note
===============================================================================
comments
print report bad tab
I want to post or [tab]
guest
You may want to rate the tab now too:
select rating
Please do not post tabs as comments. Select "correction" instead!