Oops, an error
Loading. Please wait.

Counting Down The Hours Tab

2,781 views 3 this week
no commentswrite comment
1 2 3 4 5
accurate
x 3
add to favorites
launch autoscroll
font size
0
reset
how to read this tab
guitar tuner
Autoscroll
slow
fast
+/-
esc
set tempo
stop
Help us to improve Ultimate-Guitar.com Take our survey!
×
Contributor
Difficulty
intermediate
intro:
Em, C, Am, G, D

e--77-5----5-77-|
b--77-5-88-5-77-|
g-------77------|
d---------------|
a---------------|
e---------------|x4

e-7-7-7-7--8-8-8-8---5-5-5-5--------------|
b-8-8-8-8--8-8-8-8---5-5-5-5--------------|
g-9-9-9-9--9-9-9-9---5-5-5-5--------------|
d-9-9-9-9--10101010--7-7-7-7--12-12-12-12-|
a-----------------------------10-10-9--9--|
e-----------------------------------------|x4

e----------------|
b-12-10----10-12-|
g-------12-------|
d----------------|
a----------------|
e----------------|x3

e--77-5----5-77-|
b--77-5-88-5-77-|
g-------77------|
d---------------|
a---------------|
e---------------|x1


the amazing solo

e--------------------------------------------12/10/12/15-|
b------------------------------8---8---8---8-12/10/12/15-|
g-99999999999999/77777777--------------------------------|
d-------------------------9/10--10--10--10---------------|
a--------------------------------------------------------|
e--------------------------------------------------------|

e-20-16-18-16---16-----------------------------------------|
b------------18---18-----16h18-a-whole-bunch---------------|
g----------------------------------------------------------|
d----------------------------------------------------------|
a----------------------------------------------------------|
e----------------------------------------------------------|

e--------------------------------------|
b--------------------------------------|
g----------16-14---14---16-14----------|
d-14-14-14-------17---14------17-14-14-|
a--------------------------------------|
e--------------------------------------|

e---------------------------------------------------------------------|
b---------------------------------------------------------------------|
g-9/12/14/12/11/12/11/9/7/4/2-0h2h0-0h4h0-between-the-two-for-a-while-|
d---------------------------------------------------------------------|
a---------------------------------------------------------------------|
e---------------------------------------------------------------------|

Em, C, Am, G, D

palm mute
e-7-7-7-7--8-8-8-8---5-5-5-5--------------|
b-8-8-8-8--8-8-8-8---5-5-5-5--------------|
g-9-9-9-9--9-9-9-9---5-5-5-5--------------|
d-9-9-9-9--10101010--7-7-7-7--12-12-12-12-|
a-----------------------------10-10-9--9--|
e-----------------------------------------|x2

e----------------|
b-12-10----10-12-|
g-------12-------|
d----------------|
a----------------|
e----------------|x3

e--77-5----5-77-|
b--77-5-88-5-77-|
g-------77------|
d---------------|
a---------------|
e---------------|x1

e----------------|
b-12-10----10-12-|
g-------12-------|
d----------------|
a----------------|
e----------------|x3

e--77-5----5-7777-|
b--77-5-88-5-7777-|
g-------77--------|
d-----------------|
a-----------------|
e-----------------|x4








comments
We did not receive enough feedback on this tab! Please rate:
print report bad tab
1 2 3 4 5
I want to post or [tab]
guest
You may want to rate the tab now too:
select rating
Please do not post tabs as comments. Select "correction" instead!