Oops, an error
Loading. Please wait.

High Party Tab

version 1
version 1

Intro

Interactive

2,265 views 1 this week
no commentswrite comment
1 2 3 4 5
x 3
add to favorites
launch autoscroll
font size
0
reset
how to read this tab
guitar tuner
Autoscroll
slow
fast
+/-
esc
set tempo
stop
Help us to improve Ultimate-Guitar.com Take our survey!
×
Author
"The High Party" by Ted Leo and The Pharmacists

This intro is played pretty fast and on the first slide is played fast so you don't
really hear the first note. This is an awsome song so enjoy.

e---------10----12---10----10----| 
b—1/12-12----12---------12-------|
g--------------------------------|  x2
d--------------------------------|
a--------------------------------|
E--------------------------------|

e--------10----12---10----10-----|
b—11--11----11---------11--------|
g--------------------------------| x2
d--------------------------------|
a--------------------------------|
E--------------------------------|

e--------------10----------------------------10------------|
b-------13--10----13--10--13--10--10--13--10----13--10--13-|
g-10--10---------------------------------------------------|  x2
d----------------------------------------------------------| 
a----------------------------------------------------------|
E----------------------------------------------------------|

e--------13----15--13------13-|
b—15--15----15---------15-----|
g-----------------------------|  x2
d-----------------------------|
a-----------------------------|
E-----------------------------|

e--------13----15--13------13-|
b—14--14----14---------14-----|
g-----------------------------|  x2
d-----------------------------|
a-----------------------------|
E-----------------------------|

e--------------10----------------------------10------------|
b-------13--10----13--10--13--10--10--13--10----13--10--13-|
g-10--10---------------------------------------------------|  
d----------------------------------------------------------| 
a----------------------------------------------------------|
E----------------------------------------------------------|

e--------------10-------------------------------------| 
b-------13--10----13--10--13—-15-15-15-15-15-15-15-15-|
g-10--10----------------------------------------------| 
d-----------------------------------------------------|  
a-----------------------------------------------------|
E-----------------------------------------------------|
Suggest correction
Give kudos to tab author, rate the tab!
1 2 3 4 5
comments
print report bad tab
guest
You may want to rate the tab now too:
select rating
Wanna post a correction for this tab? Suggest correction