Oops, an error
Loading. Please wait.

Me And Mia Tab

version 1
version 1

Whole song

Interactive

2,428 views 1 this week
no commentswrite comment
1 2 3 4 5
2 more votes to show rating
add to favorites
launch autoscroll
font size
0
reset
how to read this tab
guitar tuner
Autoscroll
slow
fast
+/-
esc
set tempo
stop
Help us to improve Ultimate-Guitar.com Take our survey!
×
Author
Difficulty
  C                 change!          Am             Dm
|-0000000000000000-0000000000000000-000000000000000-1111111111010101-|
|-1111111111111111-1111111111111111-111111111111111-3333333333333333-|
|-0000000000000000-2222222222222222-222222222222222-2222222222222222-|
|-2222222222222222-0000000000000000-222222222222222-0000000000000000-|
|-3333333333333333-3333333333333333-000000000000000------------------|
|--------------------------------------------------------------------|

i know theres lots of different ways to play this...but this is the one ive found that 
the best...in the intro.
  G
|-3~~~----------------------------------------|
|-0~~~----------------------------------------|
|-0~~~-77~~~-10101010101010101010101010101010-|
|-0~~~-55~~~-10101010101010101010101010101010-|
|-2~~~-55~~~-8-8-8-8-8-8-8-8-8-8-8-8-8-8-8-8--|
|-3~~~----------------------------------------|

|-----------------5555555555555555-5555555555555555-5555555555555555-|
|-----------------6666666666666666-5555555555555555-6666666666565656-|
|-555555555555555-7777777777777777-5555555555555555-7777777777777777-|
|-555555555555555-7777777777777777-7777777777777777-7777777777777777-|
|-333333333333333-5555555555555555-7777777777777777-5555555555555555-|
|----------------------------------5555555555555555------------------|

and like the only other part is this

|---------------------------------------|
|---------------------------------------|
|-10-1010-1010-999-777------------------|
|-10-1010-1010-999-777-7777777777777777-|
|-8--8-8--8-8--777-555-7777777777777777-|
|----------------------5555555555555555-|
Suggest correction
Give kudos to tab author, rate the tab!
1 2 3 4 5
comments
print report bad tab
guest
You may want to rate the tab now too:
select rating
Wanna post a correction for this tab? Suggest correction