Oops, an error
Loading. Please wait.

One Who Got Us Out Tab

1,254 views 1 this week
no commentswrite comment
1 2 3 4 5
please rate
add to favorites
launch autoscroll
font size
0
reset
how to read this tab
guitar tuner
Tab Pro tools
  • play this tab
  • loop segment
  • change instrument
  • show fretboard
  • metronome
×
Best way to learn
"One Who Got Us Out"
Autoscroll
slow
fast
+/-
esc
set tempo
stop
Difficulty
intermediate
|---0--0--0--0-----4-0------0-------|
|--0--0--0--0--2-2----2------2------|
|-2--2--1--1-----------3-3-3--3-----|
|-----------------------------------|
|-----------------------------------|
|-----------------------------------|
                        pm----------------------------|    
|---0--0--0--0-----4-0----------------4-4-4-4-0-0-0-0-|
|--0--0--0--0--2-2----2--------2-2-2-24-4-4-4-4-4-4-4-|
|-2--2--1--1------------3-3-3-33-3-3-33-3-3-3-3-3-3-3-|
|-----------------------------------------------------|
|-----------------------------------------------------|
|-----------------------------------------------------|

|-------------------------------------|
|-------------------------------------|
|-------------------66666666----------|
|-77777777-22222222-66666666-44444444-|
|-77777777-22222222-44444444-44444444-|
|-55555555-00000000----------22222222-|


|---------------------------------------|
|---------------------------------------|
|-------------------66666666------------|
|-77777777-22222222-66666666-444-44-444-|
|-77777777-22222222-44444444-444-44-444-|
|-55555555-00000000----------222-22-222-|

|----------------------------------------------|
|----------------------------------------------|
|----------------------------------------------|
|-4h7-7-7~~~~~~~~------------------------------|
|----------------4h7-7-7~~~~-------------------|
|---------------------------7h9/2-2-2-22-2~~~~-|x2

|---0--0--0--0-----4-0------0-------|
|--0--0--0--0--2-2----2------2------|
|-2--2--1--1-----------3-3-3--3-----|
|-----------------------------------|
|-----------------------------------|
|-----------------------------------|
                        pm----------------------------|    
|---0--0--0--0-----4-0----------------4-4-4-4-0-0-0-0-|
|--0--0--0--0--2-2----2--------2-2-2-24-4-4-4-4-4-4-4-|
|-2--2--1--1------------3-3-3-33-3-3-33-3-3-3-3-3-3-3-|
|-----------------------------------------------------|
|-----------------------------------------------------|
|-----------------------------------------------------|

|-------------------------------------|
|-------------------------------------|
|-------------------66666666----------|
|-77777777-22222222-66666666-44444444-|
|-77777777-22222222-44444444-44444444-|
|-55555555-00000000----------22222222-|


|---------------------------------------|
|---------------------------------------|
|-------------------66666666------------|
|-77777777-22222222-66666666-444-44-444-|
|-77777777-22222222-44444444-444-44-444-|
|-55555555-00000000----------222-22-222-|

|----------------------------------------------|
|----------------------------------------------|
|----------------------------------------------|
|-4h7-7-7~~~~~~~~------------------------------|
|----------------4h7-7-7~~~~-------------------|
|---------------------------7h9/2-2-2-22-2~~~~-|x2



|--------------------------------------------------|
|--------------------------------------------------|
|--------------------------------------------------|
|-4h747747477~~~~~~~~------------------------------|
|----------------4h747747477~~~~-------------------|
|-----------------------------7h9/2-2-2-22-2~~~~---|x2

|-------------------|
|-------------------|
|-------------------|
|-66666666-44444444-|
|-66666666-44444444-|
|-44444444-22222222-|

|--------------|-------------------|
|--------------|-------------------|
|-6~-----------|-66~---------------|
|-6~-7~-9~-11~-|-66~-77~-99~-1111~-|
|-4~-7~-9~-11~-|-44~-77~-99~-1111~-|
|----5~-7~-9~--|-----55~-77~-9-9~--|x2

|-------------------|
|-------------------|
|-------------------|
|-66666666-44444444-|
|-66666666-44444444-|
|-44444444-22222222-|

|-------------------|
|-------------------|
|-------------------|
|-66666666-44444444-|
|-66666666-44444444-|
|-44444444-22222222-|
|-------------------|

|-------------------|
|-------------------|
|-66666666-44444444-|
|-66666666-44444444-|
|-44444444-22222222-|


|------------|
|-6~~~--6~~~-|
|--7~~~--7~~~|
|------------|
|------------|
|------------|do this some...

|-4-|
|-5-|
|-6-|
|-6-|
|-4-|
|---| end note
comments
We did not receive enough feedback on this tab! Please rate:
print report bad tab
1 2 3 4 5
I want to post or [tab]
guest
You may want to rate the tab now too:
select rating
Please do not post tabs as comments. Select "correction" instead!