Oops, an error
Loading. Please wait.

Timorous Me Tab

version 2
version 2

Whole song

2,416 views 3 this week
no commentswrite comment
1 2 3 4 5
please rate
add to favorites
launch autoscroll
font size
0
reset
how to read this tab
guitar tuner
Tab Pro tools
  • play this tab
  • loop segment
  • change instrument
  • show fretboard
  • metronome
×
Best way to learn
"Timorous Me"
Autoscroll
slow
fast
+/-
esc
set tempo
stop
Difficulty
advanced
Intro:
e------------------------------------------------------2-2-2-----|
B------------------------------------------------------2-2-2-----|
G------------------------------------------------------2-2-2-----|
D--------2--------------(4)b5r4-2-----------2----------4-4-2-----|
A--2—2h4---4-4-4--2—2h4----------4-4--2—2h4----4-4-4---4-4-2-----|
E------------------------------------------------------2-2-2-----|

e---------------------------------------------------------------2-2-2-|
B---------------------------------------------------------------2-2-2-|
G---------------------------------------------------------------2-2-2-|
D--6—4h6p4-2----2--------------(4)b5r4-2--------------2---------4-4-4-|
A------------4----4-4-4--2-2h4-----------4-4--2—2h4-----4-4-4---4-4-4-|
E---------------------------------------------------------------2-2-2-|

e--------------------------|
B--------------------------|
G--------------------------|
D---4--4--4----7--7--7-----|
A---4--4--4----7--7--7-----|
E--2--2--2----5--5--5------|

Verse:
  Emaj5     C#m             F#m         A
e--------------------------------------------------|
B--------------------------------------------------|
G----9-------6-------------------------------------|
D----9-------6----------------4---------7----------|
A--7------4------4--2---------4---------7----------|
E----------------------4----2---------5------------|

   C#m       E                F#m   F#m    A
e -------------------------------------------------|
B--------------------------------------------------|
G----6---------------------------------------------|
D----6------2---------2-------4-----4------7-------|
A--4--------2-----2h4---4-----4-----4------7-------|
E-----------0----------------2-----2-----5---------|

Verse: 2nd time play like this

  Emaj5           C#m        F#m      A
e--------------------------------------------------|
B--------------------------------------------------|
G----9-------------6-------------------------------|
D----9-------------6--------4---------7------------|
A--7----2slide4---4---------4---------7------------|
E--------------------------2---------5-------------|

   C#m       E                F#m   F#m    A
e -------------------------------------------------|
B--------------------------------------------------|
G----6---------------------------------------------|
D----6------2---------2-------4-----4------7-------|
A--4--------2-----2h4---4-----4-----4------7-------|
E-----------0----------------2-----2-----5---------|

Bridge or whatever you call this thing:

    D               C#m                Emaj5   Emaj5
e--------------------------------------------------------------------------|
B---------7--5-------------------------------------------------------------|
G----7----------6-----6--------4----------9------9----------9--11-pull-off-|
D----7----------------6----4h6---6--------9------9--9slide11---------------|
A--5----------------4-------------------7------7---------------------------|
E--------------------------------------------------------------------------|

              C#m                                E               F#m
e--------------------------------------------------------------------------|
B--------------------------------------------------------------------------|
G-9------9-----6--------4--6pull-off4------4-------------------------------|
D----11--------6----4h6----------------6---------2------2--------4---------|
A-------------4----------------------------------2--2h4---4------4---------|
E------------------------------------------------0--------------2----------|

  F#m         A
e----------------------------------------------------------------------------|
B----------------------------------------------------------------------------|
G----------------------------------------------------------------------------|
D----4-------7---------------------------------------------------------------|
A----4-------7---------------------------------------------------------------|
E---2-------5----------------------------------------------------------------|

the end
comments
We did not receive enough feedback on this tab! Please rate:
print report bad tab
1 2 3 4 5
I want to post or [tab]
guest
You may want to rate the tab now too:
select rating
Please do not post tabs as comments. Select "correction" instead!