Oops, an error
Loading. Please wait.

Under The Hedge Tab

2,502 views 1 this week
3 commentsread comments
1 2 3 4 5
accurate
x 4
add to favorites
launch autoscroll
font size
0
reset
how to read this tab
guitar tuner
Tab Pro tools
  • play this tab
  • loop segment
  • change instrument
  • show fretboard
  • metronome
×
Best way to learn
"Under The Hedge"
Autoscroll
slow
fast
+/-
esc
set tempo
stop
Contributor
Not 100% sure about everything, but I think this is pretty close to how Ted plays it
 I'm sort of new to tabbing so you'll have to forgive any foolish mistakes.

-Intro:

e|-----------------------------------------|
B|-3-------------------------3p2p0---------|
G|-2-------2p0-----0---------------2-------|
D|-0-----------4p2---4p2p0-----------4-0---|
A|-----------------------------------------|
E|-----------------------------------------|

Play that minus the first D chord four times (fast), then close like this:

e|---------------------------------|
B|-----------------3---------------|
G|-2p0-----0-------2---------------|
D|-----4p2---4p2p0-0---------------|
A|---------------------------------|
E|---------------------------------|

In the studio version, it's played an octave higher as well. (On a twelve string?)  And
think there's another guitar playing straight D chords underneath everytime you hit that
D.  You can use drop D tuning to try and simulate it, but then it gets more tricky than 
already is...

-Verse:

e|---------------------------------------0---------0---0h2p0---0---|
B|------------3---3---3---3----------3-----3-----3---3-------3---3-|
G|--------------2---2---2---0------0---------0-4-------------------|
D|-------------------------------2---------------------------------|
A|-----------------------------2-------2---------------------------|
E|-----------------------------------------------------------------|
  Oh I've been...                        peeping at...

e|-----0---0h2p0---0---------------------------2-------|
B|---3---3-------3---3-3---3---2-0---------3-----3-----|
G|-0---------------------2---2-----2-0-------4-----4---|
D|---------------------------------------4-----------4-|
A|-------------------------------------2---------------|
E|-----------------------------------------------------|
                        one time stumble...

e|---------------------------------|
B|-0-0-0-0-0-0-0-0-0-0-0-0-0-0-0-0-|
G|-0-0-0-0-0-0-0-0-0-0-0-0-0-0-0-0-|
D|-0-0-0-0-0-0-0-0-0-0-0-0-0-0-0-0-|
A|---------------------------------|
E|---------------------------------|
   love you, you see...

repeat that once...

-Chorus:

e|-----------------------------------------------------------------|
B|-3-3-3-3-3-3-3-3-5-5-5-5-5-5-5-5-0-0-0-0-0-0-0-0-0-0-0-0-0-0-0-0-|
G|-0-0-0-0-0-0-0-0-2-2-2-2-2-2-2-2-0-0-0-0-0-0-0-0-0-0-0-0-0-0-0-0-|
D|-0-0-0-0-0-0-0-0-2-2-2-2-2-2-2-2-2-2-2-2-2-2-2-0-2-2-2-2-2-2-2-0-|
A|-----------------------------------------------------------------|
E|-----------------------------------------------------------------|
     I still would say...

play that 4x, end with:

e|-0-----------0-----------0---------------------------------------|
B|-0-----------0-----------0---------------------------------------|
G|-0-----------0-----------0---------------------------------------|
D|-0-----------0-----------0---------------------------------------|
A|(2)---------(2)---------(2)--------------------------------------|
E|(0)---------(0)---------(0)--------------------------------------|
  got your holy head in my hands...

-Solo (from studio version):

e|-----------------------------------------------------------------|
B|-----------------2---------2h3p2p0------/14-14\11-11-11-11\9-9-9-|
G|-----2---2-4-2-4---4-2------------2------------------------------|
D|-2-4---4---------------4-----------4-----------------------------|
A|------------------------------------2----------------------------|
E|-----------------------------------------------------------------|

e|-----------------------------/10-10-10-10-10\9-9-9-9\7-7-7-7-|
B|-9\7-7-7-7/9-9-9-9-9\7-7---7---------------------------------|
G|-------------------------------------------------------------|
D|-------------------------------------------------------------|
A|-------------------------------------------------------------|
E|-------------------------------------------------------------|

e|-------5-----5-----5-----5-----5-5-5-5\2-2-2/7-7-7\0-0-0-0-2-|
B|---5h7---5h7---5h7---5h7---7---5-5-5-5-----------------------|
G|-7-----------------------------------------------------------|
D|-------------------------------------------------------------|
A|-------------------------------------------------------------|
E|-------------------------------------------------------------|

e|-2-2---------------------------------------------------------|
B|-----0-0-0-0-0-0-let ring------------------------------------|
G|-------------------------------------------------------------|
D|-------------------------------------------------------------|
A|-------------------------------------------------------------|
E|-------------------------------------------------------------|

The slides at the very end still confuse me a bit because I feel like I might be missing
notes, but that's the gist...

-Outro same as Intro:

e|---------------------------------|
B|-------------------3p2p0---------|
G|-2p0-----0---------------2-------|
D|-----4p2---4p2p0-----------4-0---|
A|---------------------------------|
E|---------------------------------|

Play 8x, then:

e|-10---10-10-10---10-10-10---10-10-10---10-10-10-9----9--9--9-\7--|
B|-10---10-10-10---10-10-10---10-10-10---10-10-10-10---10-10-10\8--|
G|-----------------------------------------------------------------|
D|-----------------------------------------------------------------|
A|-----------------------------------------------------------------|
E|-----------------------------------------------------------------|

e|-7-7-7\5---5-5-5-5\-|  2x
B|-8-8-8\5---5-5-5-5\-|
G|--------------------|
D|--------------------|
A|--------------------|
E|--------------------|

Back to main riff.  End:

e|---------------0-0h2-------------|
B|---------------3-3---------------|
G|-2p0-----0-----2-2---------------|
D|-----4p2---4p2p0-0---------------|
A|---------------------------------|
E|---------------------------------|

And there you go.  Hope it at least got you on the right track.
comments
print report bad tab
3 comments total.
0 reply
ruBBerBAndBAll4 wrote on September 2 2006, 12:03 am

ur solo is way off but other than that its good

0 reply
Slip_It_Back wrote on September 27 2007, 08:13 am

Don't have a version with the solo so it looked good to me

0 reply
Talflick wrote on February 16 2012, 05:00 pm

oh god my poor fingers.... Ted why must you be such a god at playing guitar ?!

I want to post or [tab]
guest
You may want to rate the tab now too:
select rating
Please do not post tabs as comments. Select "correction" instead!