Oops, an error
Loading. Please wait.

Where Have All The Rude Boys Gone Tab

version 1
version 1

Intro

Whole song

2,972 views 1 this week
2 commentsread comments
1 2 3 4 5
accurate
x 3
add to favorites
launch autoscroll
font size
0
reset
how to read this tab
guitar tuner
Autoscroll
slow
fast
+/-
esc
set tempo
stop
Help us to improve Ultimate-Guitar.com Take our survey!
×
Difficulty
novice
|-------------------------------------------------|
|-------------------------------------------------|
|-------------------------------------------------|
|-11h12p11-9-7-7-7h9-12-19-19---------------------|
|-0--------0-0-0-0---0--0--0----------------------|
|-------------------------------------------------|

|-------------------------------------------------|
|-------------------------------------------------|
|-------------------------------------------------|
|-11h12p11-9-7-7-19191919191919...----------------|
|-0--------0-0-0-0-0-0-0-0-0-0--------------------|
|-------------------------------------------------|

ya thats the intro maybe the rest of the song will show up later
Suggest correction
Give kudos to tab author, rate the tab!
1 2 3 4 5
comments
print report bad tab
2 comments total.
0 reply
Talflick 496 wrote on May 2 2007, 12:43 pm

that 19 is a real b*tch to play...
try this:
|-------------------------------------------------|
|-----------------------9--10---------------------|
|--------------------9----------------------------|
|-11h12p11-9-7-7-7h9------------------------------|
|-0--------0-0-0-0---0--0--0----------------------|
|-------------------------------------------------|

0 reply
Talflick 496 wrote on May 2 2007, 12:43 pm

:] four stars for effort, though :]

guest
You may want to rate the tab now too:
select rating
Please do not post tabs as comments. Select "correction" instead!