Oops, an error
Loading. Please wait.

Where Have All The Rude Boys Gone Tab

version 1
version 1

Intro

Whole song

4,469 views 9 this week
no commentswrite comment
1 2 3 4 5
accurate
x 2
add to favorites
launch autoscroll
font size
0
reset
how to read this tab
guitar tuner
Tab Pro tools
  • play this tab
  • loop segment
  • change instrument
  • show fretboard
  • metronome
Autoscroll
slow
fast
+/-
esc
set tempo
stop
Contributor
----------------------------------------------------------------------------
                    WHERE HAVE ALL THE RUDE BOYS GONE? - Ted Leo
----------------------------------------------------------------------------

Tabbed by: Tyler Turner
Email: tturner.music@gmail.com

Tuning: Standard

Intro (Mostly Upstrokes)
e|--------------------------------|
B|--------------------------------|
G|-------------------------11-14--| (x7)
D|--11-12-11-9-7-7-7h9/12--0------|
A|--0--0--0--0-0-0-0--------------|
E|--------------------------------|

e|--------------------------------|
B|--------------------------------|
G|--------------------------------| 
D|--11-12-11-9-7-7-19...----------|
A|--0--0--0--0-0-0-0--------------|
E|--------------------------------|

Verse (Shuffle strumming pattern)
e|--------------------------------------------------------------------|
B|--------------------------------------------------------------------|
G|--------------------------------------------------------------------| (x2)
D|-7--7-7-7-7-7-7-7-7--7-7-7-7-7-7-9--9-9-9-9-9-9-9-5--5-5-5-5-5-5-5--|
A|-7--7-7-7-7-7-7-7-7--7-7-7-7-7-7-9--9-9-9-9-9-9-9-5--5-5-5-5-5-5-5--|
E|-5--5-5-5-5-5-5-5-5--5-5-5-5-5-5-7--7-7-7-7-7-7-7-3--3-3-3-3-3-3-3--|

e|-----------------------------------------|
B|-----------------------------------------|
G|-----------7---7-------------------------|
D|-9----9----7---7---9---9-----------------|
A|-9----9----5---5---9---9---11-12-11-9-7--|
E|-7----7------------7---7----0--0--0-0-0--|

e|-----------------------------------------------|
B|-----------------------------------------------|
G|-----------7---7------------------------1------|
D|-9----9----7---7---10-10-9-9-8-8--7-5-4-2------|
A|-9----9----5---5---10-10-9-9-8-8--7-5-4-2------|
E|-7----7------------8--8--7-7-6-6--5-3-2-0------|
                     .  .  . . . .     

Chorus 
Guitar (Clean, very quiet for first half)
e|----------------------------------|
B|----------------------------------|
G|-------------------7---7---7---7--|
D|---9---9---9---9---7---7---7---7--|
A|---9---9---9---9-5-5-5-5-5-5-5-5--|
E|-7-7-7-7-7-7-7-7------------------|

Piano
e|-----------|--------------|
B|-----------|--------------|
G|-----------|--------------|
D|------9-11-|-11-14-11-14--|(x4)
A|-9-12------|--------------|
E|-----------|--------------|

Breakdown
e|--------------|
B|--------------|
G|--------------|
D|--7---------7-| (x8)
A|--7---------7-|
E|--5---------5-|


| /  slide up
| \  slide down
| h  hammer-on
| p  pull-off
| ~  vibrato
| +  harmonic
| x  Mute note
===============================================================================
comments
We did not receive enough feedback on this tab! Please rate:
print report bad tab
1 2 3 4 5
I want to post or [tab]
guest
You may want to rate the tab now too:
select rating
Please do not post tabs as comments. Select "correction" instead!