Oops, an error
Loading. Please wait.

Cat Scratch Fever Tab

version 1
version 1

Whole song

Interactive

Video

142,291 views 174 this week
2 commentsread comments
1 2 3 4 5
accurate
x 24
add to favorites
launch autoscroll
font size
0
reset
how to read this tab
guitar tuner
Autoscroll
slow
fast
+/-
esc
set tempo
stop
Help us to improve Ultimate-Guitar.com Take our survey!
×
Artist: Ted Nugent
Title: Cat Scratch Fever
Album: Cat Scratch Fever
Transcribed by: Brian Van Maurik (vanmaurik@hotmail.com)


[Intro/Main/Chorus]                                   [Fill]                   

e|-|-----|---------------------------------------------|-------|----------------|
B|-|-2---|---------------------------------------------|-------|----------------|
G|-|-4br-|-2---4---5-5---2-4-5---2---4---5-5---5-4---2-|-------|----------------|
D|-|-----|-2---4---5-5---2-4-5---2---4---5-5---5-4---2-|-------|----------------|
A|-|-----|---0---0-----------------0---0-----------0---|-------|----------------|
E|-|-----|---------------------------------------------|-0-3-4-|----------------|


[Verse]

  (some muted open A's may be in there...)                             
e|-|--------------------------------3--2--0-------------------|---------------------------|
B|-|--------------------------------0--3--2-------------------|---------------------------|
G|-|-2-2-4-4-2-2-5-5-2-2-5-2--------0--2--2-------------------|---------------------------|
D|-|-2-2-4-4-2-2-5-5-2-2-5-2--------0--0--2-------------------|---------------------------|
A|-|--------------------------0-3-4-2-----0--0-3-4------------|---------------------------|
E|-|--------------------------------3-------------------------|---------------------------|


[Bridge]

e|-|-------------|--------------------------------------------------------------|
B|-|-------------|--------------------------------------------------------------|
G|-|-8-----5-----|--------------------------------------------------------------|
D|-|-8-----5-----|--------------------------------------------------------------|
A|-|-6-----3-----|--------------------------------------------------------------|
E|-|-------------|--------------------------------------------------------------|



************************************

| br  Bend release

************************************
Suggest correction
comments
print report bad tab
2 comments total.
0 reply
tickler444 50 wrote on December 30 2008, 10:06 am

This is by far the best-sounding Cat Scratch Fever here. If only the timing could be a bit better, it would be perfect.
5 stars from me, just because the other versions aren't as good as this one.

0 reply
Donovan420 10 wrote on May 18 2009, 02:51 pm

this tab sounds good 2 thumbs up

guest
You may want to rate the tab now too:
select rating
Please do not post tabs as comments. Select "correction" instead!