Oops, an error
Loading. Please wait.

Dog Eat Dog Tab

version 1
version 1

Whole song

Interactive

Video

6,956 views 18 this week
no commentswrite comment
1 2 3 4 5
accurate
x 3
add to favorites
launch autoscroll
font size
0
reset
how to read this tab
guitar tuner
Tab Pro tools
  • play this tab
  • loop segment
  • change instrument
  • show fretboard
  • metronome
Autoscroll
slow
fast
+/-
esc
set tempo
stop
Contributor
Difficulty
novice
-------------------------------------------------------------------------------
                             Dog Eat Dog - Ted Nugent
-------------------------------------------------------------------------------
Tabbed by:dk
Email:eghockey17@msn.com

Tuning:
    Intro:
e|---------------------------------------------------------------------------|
B|---------------------------------------------------------------------------|
G|--------7--------5--------7-5----------------------------------------------|
D|--7-----7--7-----5--7-----7-5-57-------------------------------------------|
A|--7-0000---7-0000---7-0000----57-------------------------------------------|
E|---------------------------------------------------------------------------|
    Intro:
e|---------------------------------------------------------------------------|
B|--------------------------------10-----------------------------------------|
G|--------7--------5--------7-5---9----------do this three-------------------|
D|--7-----7--7-----5--7-----7-5-5-7---------------times----------------------|
A|--7-0000---7-0000---7-0000----5-7------------------------------------------|
E|---------------------------------------------------------------------------|

e|-----------------------------------------------------------------------------|
B|-----------------------------------------------------------------------------|
G|-----------------------------------------------------------------------------|
D|----777--777--77-------------(fill)------------------------------------------|
A|-----------------------------------------------------------------------------|
E|-----------------------------------------------------------------------------|
    Verse:
e|---------------------------------------------------------------------------|
B|---------------------------------------------------------------------------|
G|--5-55--55---------5-5---------------5-55--55---5---3-------12------12/14--|
D|--5-55-755-7---7---5-5--5-55--6-67---5-55-755-7-5-5-3-3-----12------12/14--|
A|-------7---7--5---0-----5-55--6-67--------7---7-3-5-1-3--------------------|
E|-------------5--------033-33--4-45----------------3---1-0-000--0-000-------|

    Chorus:
e|-----------------------------------------------------------------------12--|
B|----------------10----------------10---------------------------------------|
G|--------55------9---------55------9---------55----5---3--------12----------|
D|--7-55--55-7----7---7-55--55-7----7---7-55--55-7--5-5-3-3------------------|
A|--7-55-----7---57---7-55-----7---57---7-55-----7--3-5-1-3------------------|
E|--------------5-----------------5-------------------3---1-0-000---0-000----|
    Bridge:
e|---------------------------------------------------------------------------|
B|---------------------------------------------------------------------------|
G|--777--555--444--222-------------------------------------------------------|
D|--777--555--444--222-------------------------------------------------------|
A|---------------------------------------------------------------------------|
E|---------------------------------------------------------------------------|( do this 
the first solo. Then go to the verse for the 2nd)

| /  slide up
| \  slide down
| h  hammer-on
| p  pull-off
| ~  vibrato
| +  harmonic
| x  Mute note
===============================================================================
comments
We did not receive enough feedback on this tab! Please rate:
print report bad tab
1 2 3 4 5
I want to post or [tab]
guest
You may want to rate the tab now too:
select rating
Please do not post tabs as comments. Select "correction" instead!