Oops, an error
Loading. Please wait.

Hard As Nails Tab

622 views 3 this week
no commentswrite comment
1 2 3 4 5
please rate
add to favorites
launch autoscroll
font size
0
reset
how to read this tab
guitar tuner
Tab Pro tools
  • play this tab
  • loop segment
  • change instrument
  • show fretboard
  • metronome
Autoscroll
slow
fast
+/-
esc
set tempo
stop
Contributor
Difficulty
novice
Track 1
                       PM                                              PM  
     E  E  E  H        E     E  E  Q    E  Q.        E  E  E  H        E   
E||-----------------------|-----------------------|-----------------------|
B||-----------------------|-----------------------|-----------------------|
G||--2--x--x--5--------5--|--x--x--7----7--5------|--2--x--x--5--------5--|
D||--2--x--x--5--------5--|--x--x--7----7--5------|--2--x--x--5--------5--|
A||-----------------------|-----------------------|-----------------------|
E||-----------------------|-----------------------|-----------------------|


                                             PM                          
  E  E  E  S S H           E  E  E  H        E     E  E  Q    E  Q.      
------------------------|-----------------------|-----------------------|
------------------------|-----------------------|-----------------------|
--x--5--7--7-8-7--------|--2--x--x--5--------5--|--x--x--7----7--5------|
--x--5--7--7-8-7--------|--2--x--x--5--------5--|--x--x--7----7--5------|
------------------------|-----------------------|-----------------------|
------------------------|-----------------------|-----------------------|


  PM PM PM PM PM PM PM PM PM                                                    
  E  S  S  E  E  E  E  E  E     Q    Q    E  E  E   E     E  E  H.              
-----------------------------|-------------------------|----------------------||
-----------------------------|-------------------------|----------------------||
-----------------------------|-------7----7--5--x--10--|--L--5--7------------*||
--2--------------------------|-------7----7--5--x--10--|--L--5--7------------*||
-----3--3--2--0--2--3--2--0--|--L----------------------|----------------------||
-----------------------------|-------------------------|----------------------||


  PM PM PM PM PM PM PM PM    PM PM PM PM PM PM PM PM                      PM  
  E  E  E  E  E  E  E  E     E  E  E  E  E  E  E  E     E  E  E  H        E   
--------------------------|--------------------------|-----------------------|
--------------------------|--------------------------|-----------------------|
--2-----------------------|-----------5--------------|--2--x--x--5--------5--|
--2-----------------------|-----------5--------------|--2--x--x--5--------5--|
-----0--0--0--0--0--0--0--|--0--0--0-----0--0--0--0--|-----------------------|
--------------------------|--------------------------|-----------------------|


                             PM PM PM PM PM PM PM    PM PM PM PM PM PM PM PM  
  E  E  Q    E  Q.        E  E  E  E  E  E  E  E     E  E  E  E  E  E  E  E   
-----------------------|--------------------------|--------------------------|
-----------------------|--------------------------|--------------------------|
--x--x--7----7--5------|--2-----------------------|--------------------------|
--x--x--7----7--5------|--2-----------------------|--------------------------|
-----------------------|-----0--0--0--0--0--0--0--|--0--0--0--0--0--0--0--0--|
-----------------------|--------------------------|--------------------------|


                    PM                               PM PM PM PM PM PM PM  
  E  E  E  H        E     E  E  Q    E  Q.        E  E  E  E  E  E  E  E   
-----------------------|-----------------------|--------------------------|
-----------------------|-----------------------|--------------------------|
--2--x--x--5--------5--|--x--x--7----7--5------|--2-----------------------|
--2--x--x--5--------5--|--x--x--7----7--5------|--2-----------------------|
-----------------------|-----------------------|-----0--0--0--0--0--0--0--|
-----------------------|-----------------------|--------------------------|


  PM PM PM PM PM PM PM PM                      PM                          
  E  E  E  E  E  E  E  E     E  E  E  H        E     E  E  Q    E  Q.      
--------------------------|-----------------------|-----------------------|
--------------------------|-----------------------|-----------------------|
--------------------------|--2--x--x--5--------5--|--x--x--7----7--5------|
--------------------------|--2--x--x--5--------5--|--x--x--7----7--5------|
--0--0--0--0--0--0--0--0--|-----------------------|-----------------------|
--------------------------|-----------------------|-----------------------|


     PM PM PM PM PM PM PM    PM PM PM PM PM PM PM PM                      PM  
  E  E  E  E  E  E  E  E     E  E  E  E  E  E  E  E     E  E  E  H        E   
--------------------------|--------------------------|-----------------------|
--------------------------|--------------------------|-----------------------|
--2-----------------------|--------------------------|--2--x--x--5--------5--|
--2-----------------------|--------------------------|--2--x--x--5--------5--|
-----0--0--0--0--0--0--0--|--0--0--0--0--0--0--0--0--|-----------------------|
--------------------------|--------------------------|-----------------------|


                                            PM                           
  E  E  Q    E  Q.        E  E  E  H        E     E  E  E  S S H         
-----------------------|-----------------------|------------------------|
-----------------------|-----------------------|------------------------|
--x--x--7----7--5------|--2--x--x--5--------5--|--x--5--7--7-8-7--------|
--x--x--7----7--5------|--2--x--x--5--------5--|--x--5--7--7-8-7--------|
-----------------------|-----------------------|------------------------|
-----------------------|-----------------------|------------------------|


                    PM                            PM PM PM PM PM PM PM PM PM  
  E  E  E  H        E     E  E  Q    E  Q.        E  S  S  E  E  E  E  E  E   
-----------------------|-----------------------|-----------------------------|
-----------------------|-----------------------|-----------------------------|
--2--x--x--5--------5--|--x--x--7----7--5------|-----------------------------|
--2--x--x--5--------5--|--x--x--7----7--5------|--2--------------------------|
-----------------------|-----------------------|-----3--3--2--0--2--3--2--0--|
-----------------------|-----------------------|-----------------------------|


                                                     PM PM PM PM PM PM PM  
  Q    Q    E  E  E   E     E  E  H.              E  E  E  E  E  E  E  E   
-------------------------|---------------------|--------------------------|
-------------------------|---------------------|--------------------------|
-------7----7--5--x--10--|--L--5--7------------|--2-----------------------|
-------7----7--5--x--10--|--L--5--7------------|--2-----------------------|
--L----------------------|---------------------|-----0--0--0--0--0--0--0--|
-------------------------|---------------------|--------------------------|


  PM PM PM PM PM PM PM PM                      PM                          
  E  E  E  E  E  E  E  E     E  E  E  H        E     E  E  Q    E  Q.      
--------------------------|-----------------------|-----------------------|
--------------------------|-----------------------|-----------------------|
--------------------------|--2--x--x--5--------5--|--x--x--7----7--5------|
--------------------------|--2--x--x--5--------5--|--x--x--7----7--5------|
--0--0--0--0--0--0--0--0--|-----------------------|-----------------------|
--------------------------|-----------------------|-----------------------|


     PM PM PM PM PM PM PM    PM PM PM PM PM PM PM PM                      PM  
  E  E  E  E  E  E  E  E     E  E  E  E  E  E  E  E     E  E  E  H        E   
--------------------------|--------------------------|-----------------------|
--------------------------|--------------------------|-----------------------|
--2-----------------------|--------------------------|--2--x--x--5--------5--|
--2-----------------------|--------------------------|--2--x--x--5--------5--|
-----0--0--0--0--0--0--0--|--0--0--0--0--0--0--0--0--|-----------------------|
--------------------------|--------------------------|-----------------------|


                                            PM                           
  E  E  Q    E  Q.        E  E  E  H        E     E  E  E  S S H         
-----------------------|-----------------------|------------------------|
-----------------------|-----------------------|------------------------|
--x--x--7----7--5------|--2--x--x--5--------5--|--x--5--7--7-8-7--------|
--x--x--7----7--5------|--2--x--x--5--------5--|--x--5--7--7-8-7--------|
-----------------------|-----------------------|------------------------|
-----------------------|-----------------------|------------------------|


                    PM                            PM PM PM PM PM PM PM PM PM  
  E  E  E  H        E     E  E  Q    E  Q.        E  S  S  E  E  E  E  E  E   
-----------------------|-----------------------|-----------------------------|
-----------------------|-----------------------|-----------------------------|
--2--x--x--5--------5--|--x--x--7----7--5------|-----------------------------|
--2--x--x--5--------5--|--x--x--7----7--5------|--2--------------------------|
-----------------------|-----------------------|-----3--3--2--0--2--3--2--0--|
-----------------------|-----------------------|-----------------------------|


  Q    Q    E  E  E   E     E  E  H.             
-------------------------|---------------------||
-------------------------|---------------------||
-------7----7--5--x--10--|--L--5--7------------||
-------7----7--5--x--10--|--L--5--7------------||
--L----------------------|---------------------||
-------------------------|---------------------||




Duration Legend
---------------
W - whole
H - half
Q - quarter
E - 8th
S - 16th
T - 32nd
X - 64th
. - note dotted
|-n-|  - n-tuplets


Tablature Legend
----------------
L - tied note
x - dead note
g - grace note
(n) - ghost note
> - accentuded note
NH - natural harmonic
AH - artificial harmonic
TH - tapped harmonic
SH - semi harmonic
PH - pitch harmonic
h - hammer on
p - pull off
b - bend
br - bendRelease
pb - preBend
pbr - preBendRelease
brb - bendReleaseBend
\n/ - tremolo bar dip
\n - tremolo bar dive
-/n - tremolo bar Release up
/n\ - tremolo bar inverted dip
/n - tremolo bar return
-\n - tremolo bar Release down
S - shift slide
s - legato slide
/ -  slide into from below or out of upwards
\ -  slide into from above or out of downwards
~ - vibrato
W - wide vibrato
tr - trill
TP - tremolo picking
T - tapping
S - slap
P - pop
< - fade in
^ - brush up
v - brush down
comments
We did not receive enough feedback on this tab! Please rate:
print report bad tab
1 2 3 4 5
I want to post or [tab]
guest
You may want to rate the tab now too:
select rating
Please do not post tabs as comments. Select "correction" instead!