Oops, an error
Loading. Please wait.

Homebound Tab

version 1
version 1

Whole song

Interactive

6,145 views 3 this week
5 commentsread comments
1 2 3 4 5
x 5
add to favorites
launch autoscroll
font size
0
reset
how to read this tab
guitar tuner
Autoscroll
slow
fast
+/-
esc
set tempo
stop
Help us to improve Ultimate-Guitar.com Take our survey!
×
Ted Nugent
"Home Bound"
album- Best of Ted Nugent Great Gonzos!

~ Vibrate

Intro/Riff

E----------------------------|-----------------------------------|play 4 times
B---17~~--17-15-14-14--------|-----------------------------------|
G---------------------14-----|-------14-16~~-18-18-14~~----------|
D------------------------14~~|-14-14-----------------------------|
A----------------------------|-----------------------------------|
E----------------------------|-----------------------------------|

then the whole song is like one long solo after that if you know Ted,

Thats all I can get so far. He basically keeps the song in that range on the fret board.

He also just plays that riff on and off in the songGood luck figuring out the rest.

I know at the end he playes the intro a step higher near the end of the song.
Suggest correction
comments
print report bad tab
5 comments total. Showing first comments.
0 reply
Valhalla 251 Jan 31, 2004 12:00 AM

I want the rest.

0 reply
ac/dc_rocks_4ev 10 Jun 05, 2004 12:00 AM

instead of 2 14th frets on the fourth string it should be a 14th then the 16th on the fourth string

--------------------------------
--------------------------------
--------14-16-18-18-18-14-------
--14-16-------------------------

0 reply
MrEmann 10 Mar 30, 2007 07:46 AM

Tab too short. Basically this is just the intro.

guest
You may want to rate the tab now too:
select rating
Wanna post a correction for this tab? Suggest correction