Oops, an error
Loading. Please wait.

Bitter Tab

version 1
version 1

Whole song

7,152 views 1 this week
3 commentsread comments
1 2 3 4 5
1 last vote to show rating
add to favorites
launch autoscroll
font size
0
reset
how to read this tab
guitar tuner
Autoscroll
slow
fast
+/-
esc
set tempo
stop
Difficulty
intermediate
Basic Tuning

First tab so don't be too brutal.

I couldn't figure out the intro... but if you pick out the chords of the verse you'll 
it

Chorus and verse pretty much the same and the same chords are played throughout the song

-------------------------------------------------------|
-------------------------------------------------------|
-----------5-----------------4-------5-----------------|
--5--------5--------5--------4-------5-----------------|
--5--------3--16x---5--------2--8x---3--8x-------------|
--3--16x------------3--16x-----------------------------|
Suggest correction
Give kudos to tab author, rate the tab!
1 2 3 4 5
comments
print report bad tab
3 comments total.
0 reply
CA Rocker 20 Nov 01, 2008 12:51 PM

dammit
when i saw this i was HOPING for the intro

0 reply
skarekrow 10 Jan 29, 2009 02:12 PM

the intro is just the B G and D strings played open in decending order (B then G then D). Or at least thats how it sounds to me. Try it out.

0 reply
Squigz 36 Feb 05, 2009 04:51 AM

hey i know it

e----------------------------------------------------------------------
b----------------------------------------------------------------------
g------------------------------4-----4-----5-----5---------------------
d---5------5------4------4-------5-----5-----5-----5-------------------
a-----5------5------5------5-------5-----5-----5-----5-----------------
e-------7------7------7------7-----------------------------------------

guest
You may want to rate the tab now too:
select rating
Wanna post a correction for this tab? Suggest correction