Oops, an error
Loading. Please wait.

Midnight In Harlem Tab

version 2
version 2

Whole song

  • I hope everybody likes this tab. I made it from an... Show more
46 views 1 this week
no commentswrite comment
1 2 3 4 5
3 more votes to show rating
add to favorites
launch autoscroll
font size
0
reset
how to read this tab
guitar tuner
Autoscroll
slow
fast
+/-
esc
set tempo
stop
Help us to improve Ultimate-Guitar.com Take our survey!
×
Author
Tuning
E B E G# B E
About this tab version
I hope everybody likes this tab. I made it from another tab and the song mixed togeater. Enjoy. Remember this song is in an open E. Was this info helpful? Yes No
[Intro]
E |----0-------0-------0-------0-------0-------0-------0----------------------|
B |-0----0--2----2--4----4--2----2--0----0--2----2--4----4--5-----------------|
G#|---------------------------------------------------------------------------|
E |---------------------------------------------------------------------------|
B |---------------------------------------------------------------------------|
E |---------------------------------------------------------------------------|

[Verse]
E |----0-------0-------0------------------------------------------------------|
B |-0----0--2----2--4----4--5--------9----9-7----9----9-7---------------------|
G#|-------------------------------------8-----------8-------------------------|  6x  
E |---------------------------------------------------------------------------|
B |---------------------------------------------------------------------------|
E |---------------------------------------------------------------------------|

[Chorus]
E |----5------5------4------4-------0-------0-------0-------0-----------------|
B |-5----5-5----5-4----4-4----4--0----0--2----2--4----4--2----2---------------|
G#|---------------------------------------------------------------------------|
E |---------------------------------------------------------------------------|
B |---------------------------------------------------------------------------|
E |---------------------------------------------------------------------------|

E |----0-------0-------0------------------------------------------------------|
B |-0----0--2----2--4----4--5-------------------------------------------------|
G#|---------------------------------------------------------------------------|
E |---------------------------------------------------------------------------|
B |---------------------------------------------------------------------------|
E |---------------------------------------------------------------------------|

[Verse]
E |----0-------0-------0------------------------------------------------------|
B |-0----0--2----2--4----4--5--------9----9-7----9----9-7---------------------|
G#|-------------------------------------8-----------8-------------------------|  5x
E |---------------------------------------------------------------------------|
B |---------------------------------------------------------------------------|
E |---------------------------------------------------------------------------|

[Bridge]
E |----5------5------4------4------9------9------7------7---------------------|
B |-5----5-5----5-4----4-4----4-9----9-9----9-7----7-7----7-------------------|
G#|---------------------------------------------------------------------------|  2x
E |---------------------------------------------------------------------------|
B |---------------------------------------------------------------------------|
E |---------------------------------------------------------------------------|

[Chorus]
E |----5------5------4------4-------0-------0-------0-------0-----------------|
B |-5----5-5----5-4----4-4----4--0----0--2----2--4----4--2----2---------------|
G#|---------------------------------------------------------------------------|
E |---------------------------------------------------------------------------|
B |---------------------------------------------------------------------------|
E |---------------------------------------------------------------------------|

E |----0-------0-------0------------------------------------------------------|
B |-0----0--2----2--4----4--5-------------------------------------------------|
G#|---------------------------------------------------------------------------|
E |---------------------------------------------------------------------------|
B |---------------------------------------------------------------------------|
E |---------------------------------------------------------------------------|

[Outro]
E |----0-------0-------0------------------------------------------------------|
B |-0----0--2----2--4----4--5--------9----9-7----9----9-7---------------------|
G#|-------------------------------------8-----------8-------------------------|  6x
E |---------------------------------------------------------------------------|
B |---------------------------------------------------------------------------|
E |---------------------------------------------------------------------------|
Suggest correction
Give kudos to tab author, rate the tab!
1 2 3 4 5
comments
print report bad tab
guest
You may want to rate the tab now too:
select rating
Wanna post a correction for this tab? Suggest correction