Oops, an error
Loading. Please wait.

De Cabeza Tab

version 2
version 2

Whole song

49 views 1 this week
no commentswrite comment
1 2 3 4 5
3 more votes to show rating
add to favorites
×
Save as Personal and add changes to this tab that will be seen only by you. Learn more ›
×
You can save this tab as Personal to edit and correct it or add notes. All changes will be seen only by you. Learn more »
save as personal
new!
launch autoscroll
font size
0
reset
how to read this tab
guitar tuner
Autoscroll
slow
fast
+/-
esc
set tempo
stop
Verso:

e----------------------------------------------------
B----------------------------------------------------
G----------------------------------------------------
D--3/5----5---5--5/7--5--------5--7--7/9-7-----------
A-------7----5-------------6/7--------------10-9-7/5-
E----------------------------------------------------
   De cabeza por tu amor   y con mi  mundo  al reves

e----------------------------------------------------
B----------------------------------------------------
G----------------------------------------------------
D--3/5-7--8/9--10-9-10-9-10/9------9-9-9-9---7-7--5/2
A----------------------------------------------------
E----------------------------------------------------
  Tengo la tierra en mis manos   Y llevo el cielo en los pies

e------------------------------
B------------------------------
G------------------------------
D----5---5----7-9--7/5---------
A--7---7-----------------------
E------------------------------
   Y llevo el cielo en los pies


e----------------------------------------------------
B----------------------------------------------------
G----------------------------------------------------
D--3/5----5---5--5/7--5--------5--7--7/9-7-----------
A-------7----5-------------6/7--------------10-9-7/5-
E----------------------------------------------------
   De cabeza por tu amor   Y con los  ojos  sin ver

e----------------------------------------------------
B----------------------------------------------------
G----------------------------------------------------
D--3/5-7--8/9--10-9-10-9-10/9------9-9-9-9---7-7--5/2
A----------------------------------------------------
E----------------------------------------------------
  Yo te busco en las estrellas   Para volverte a tener

e------------------------------
B------------------------------
G------------------------------
D----5---5----7-9--7/5---------
A--7---7-----------------------
E------------------------------
   Para volverte a tener


Coro:

e------------------------------
B------------------------------
G------------------------------
D--3/5-7-9--11/12--10--9--7--5-
A------------------------------
E------------------------------
   Y en cada paso te encuentro

e-------------------------------------
B-------------------------------------
G-------------------------------------
D--3/5-7-9--14-12-10--8/9-7--4/5-5--7-
A-------------------------------------
E-------------------------------------
Y en cada esquina de mi alma te pierdo

e------------------------------------------
B------------------------------------------
G------------------------------------------
D--4/5--7-8/9--10-12-14--------------------
A-----------------------14--12-10-12-11/10-
E------------------------------------------
   Y en cada estrofa de esta cancion

e-----------------------------
B-----------------------------
G-----------------------------
D----5---5---5-7/9--7--5-5/7--
A--7---7---7------------------
E-----------------------------
Puse la letra que el cielo me dio


e------------------------------
B------------------------------
G------------------------------
D--3/5-7-9--11/12--10--9--7--5-
A------------------------------
E------------------------------
   Y en cada paso te encuentro

e-------------------------------------
B-------------------------------------
G-------------------------------------
D--3/5-7-9--14-12-10--8/9-7--4/5-5--7-
A-------------------------------------
E-------------------------------------
Y en cada esquina de mi alma te pierdo

e--------------------------------------------
B--------------------------------------------
G--------------------------------------------
D--4/5--7-8/9--10-12-14----------------------
A-----------------------14--12-10-12-11/10---
E--------------------------------------------
   Y en cada estrofa de esta cancion

e--------------------------------------------
B--------------------------------------------
G--------------------------------------------
D----5---5---5-7/9--7--5-5/7----8/9--7-5-3/5-
A--7---7---7---------------------------------
E--------------------------------------------
Puse la letra que un dia me dio tu corazon


Verso:

e----------------------------------------------------
B----------------------------------------------------
G----------------------------------------------------
D--3/5----5---5--5/7--5--------5--7--7/9-7-----------
A-------7----5-------------6/7--------------10-9-7/5-
E----------------------------------------------------
   Ese angel que encontre  Me dio un amor sin final

e----------------------------------------------------
B----------------------------------------------------
G----------------------------------------------------
D--3/5-7--8/9--10-9-10-9-10/9------9-9-9-9---7-7--5/2
A----------------------------------------------------
E----------------------------------------------------
  Y deje abierta una herida      Que ya no podre curar

e------------------------------
B------------------------------
G------------------------------
D----5---5----7-9--7/5---------
A--7---7-----------------------
E------------------------------

   Que ya no podre curar


Coro:

e------------------------------
B------------------------------
G------------------------------
D--3/5-7-9--11/12--10--9--7--5-
A------------------------------
E------------------------------
   Y en cada paso te encuentro

e-------------------------------------
B-------------------------------------
G-------------------------------------
D--3/5-7-9--14-12-10--8/9-7--4/5-5--7-
A-------------------------------------
E-------------------------------------
Y en cada esquina de mi alma te pierdo

e------------------------------------------
B------------------------------------------
G------------------------------------------
D--4/5--7-8/9--10-12-14--------------------
A-----------------------14--12-10-12-11/10-
E------------------------------------------
   Y en cada estrofa de esta cancion

e-----------------------------
B-----------------------------
G-----------------------------
D----5---5---5-7/9--7--5-5/7--
A--7---7---7------------------
E-----------------------------
Puse la letra que el cielo me dio


e------------------------------
B------------------------------
G------------------------------
D--3/5-7-9--11/12--10--9--7--5-
A------------------------------
E------------------------------
   Y en cada paso te encuentro

e-------------------------------------
B-------------------------------------
G-------------------------------------
D--3/5-7-9--14-12-10--8/9-7--4/5-5--7-
A-------------------------------------
E-------------------------------------
Y en cada esquina de mi alma te pierdo

e--------------------------------------------
B--------------------------------------------
G--------------------------------------------
D--4/5--7-8/9--10-12-14----------------------
A-----------------------14--12-10-12-11/10---
E--------------------------------------------
   Y en cada estrofa de esta cancion

e--------------------------------------------
B--------------------------------------------
G--------------------------------------------
D----5---5---5-7/9--7--5-5/7----8/9--7-5-3/5-
A--7---7---7---------------------------------
E--------------------------------------------
Puse la letra que un dia me dio tu corazon


Escrita por Lital.


Si tenes alguna duda aqui tenes mi e-mail:

lital568@
Suggest correction
Give kudos to tab author, rate the tab!
1 2 3 4 5
comments
print report bad tab
guest
Wanna post a correction for this tab? Suggest correction