Oops, an error
Loading. Please wait.

Que Nos Volvamos A Ver Tab

57 views 1 this week
no commentswrite comment
1 2 3 4 5
3 more votes to show rating
add to favorites
launch autoscroll
font size
0
reset
how to read this tab
guitar tuner
Autoscroll
slow
fast
+/-
esc
set tempo
stop
Introducción:

||-------------------------------------------------------
||-------------------------------------------------------
||------------2-----------------------------------------
||----------2---5?3--2------2-----------------------
||---3---3----------------3---5---3--3-----------------
||-----3------------------------------------------------

||--------------------------------------------------------
||-------------------------------------------------------
||-------------------------------------------------------
||----------2---2---2?3------------------------------
||---3---3---5----3--------------------------------------
||-----3------------------------------------------------

||-------------------------------------------------------
||-------------------------------------------------------
||------------2-----------------------------------------
||----------2---5?3--2------2-----------------------
||---3---3----------------3---5---3--3-----------------
||-----3------------------------------------------------

||------------------------------------------------------
||------------------------------------------------------
||-----------------------------------------------------
||-------2--3--2--3--2-------------------------------
||-3--5----------------5--3--2--------------------
||----------------------------------------------------

Los últimos dos riffs
se repiten después del primer estribillo
osea antes de la estrofa que empieza cantando
RAMA).
Es a oido, pero me coincide perfectamente con
la cancion...espero les sirva.
Suggest correction
Give kudos to tab author, rate the tab!
1 2 3 4 5
comments
print report bad tab
guest
Wanna post a correction for this tab? Suggest correction